Oops, an error
Loading. Please wait.

Motivos Tab

64 views 1 this week
no commentswrite comment
1 2 3 4 5
3 more votes to show rating
add to favorites
launch autoscroll
font size
0
reset
how to read this tab
guitar tuner
×
Best way to learn
"Motivos"
Autoscroll
slow
fast
+/-
esc
set tempo
stop
Estaba revisando la cancion y me di cuenta que necesitaban 
el punteo,bueno ahí les va...

e |-12--12--------------------------13-|
B |---13---------------13-13-13-12-----|
G |-------14-13-12---12-----------12---|
D |------------------------------------|
A |------------------------------------|
E |------------------------------------|


e |-13--13--------------------------12-|
B |---14---------------13-13-13-12-----|
G |-------14-13-12---12-----------12---|
D |------------------------------------|
A |------------------------------------|
E |------------------------------------|

Esta es una forma pero, si quieres que suene igualititito 
toca esta...

e |-12--12--------------------------13-|
B |---13--10-9-8--8////13-13-13-12-----|
G |-------------------------------14---|
D |------------------------------------|
A |------------------------------------|
E |------------------------------------|

e |-13--13--------------------------12-|
B |---14--10-9-8--8////13-13-13-12-----|
G |-------------------------------14---|
D |------------------------------------|
A |------------------------------------|
E |------------------------------------|

de cualquiera de las dos formas suena chevere ya que son 
las mismas notas pero eso solo si lo tocas como debe ser.
es todo
Suggest correction
Give kudos to tab author, rate the tab!
1 2 3 4 5
comments
print report bad tab
guest
You may want to rate the tab now too:
select rating
Wanna post a correction for this tab? Suggest correction