Oops, an error
Loading. Please wait.

Que Ironia Tab

162 views 3 this week
no commentswrite comment
1 2 3 4 5
3 more votes to show rating
add to favorites
launch autoscroll
font size
0
reset
how to read this tab
guitar tuner
×
Best way to learn
"Que Ironia"
Autoscroll
slow
fast
+/-
esc
set tempo
stop
Armoniza en Do mayor
Este requinto utiliza tres formas de notas,
Notas sencillas, diatonicas y sextas.

e-0-1-3-3-3-3-12-10--8-7----10----7----7-6-5-
B-1-3-5-5-5-5-13-12-10-8---------------8-7-6-
G-------------------------10----8------9-8-7-
D--------------------------------------9-8-7-
A--------------------------------------7-6-5-
E--------------------------------------7-6-5-

e------------------------3----12---13---12----10-
B--------------3-------5-------------------------
G-2-4-5-5-5-5----5-4-5-----12---14---12----10----
D------------------------------------------------
A------------------------------------------------
E------------------------------------------------

e----10----12----10---8---7----10---8-
B-------------------------------------
G-10----12----10----9---7---10----9---
D-------------------------------------
A-------------------------------------
E-------------------------------------
Suggest correction
Give kudos to tab author, rate the tab!
1 2 3 4 5
comments
print report bad tab
guest
You may want to rate the tab now too:
select rating
Wanna post a correction for this tab? Suggest correction