Oops, an error
Loading. Please wait.

Cualquier Noche Puede Salir El Sol Tab

version 1
version 1

Whole song

62 views 1 this week
no commentswrite comment
1 2 3 4 5
3 more votes to show rating
add to favorites
launch autoscroll
font size
0
reset
how to read this tab
guitar tuner
Autoscroll
slow
fast
+/-
esc
set tempo
stop
Help us to improve Ultimate-Guitar.com Take our survey!
×
 Tab By SERGIO

 / = Slide
 h = hammer on
 p = pull off
 pm..= Palm mute
 br=bend release
 H=Pinch harmonic
 \\\=Vibrato con la palanca

 Intro:

 D# justo despues de esto hace este punteillo

 e|-666-444-333-4-3------|
 B|-----------------6-4--|


 D# A# C G G# D# A# Estos son los acordes asta ke empieza a cantar

 e|-------------------------------------------------
 B|-------------------------------------------------
 G|-----8--8-7-5-----5---5-3-1-0h1p0----------------
 D|--/8------------5-----------------1--6--6--5--3--
 A|-------------------------------------------------
 E|-------------------------------------------------

 ---------------------------------------------------|
 ----------------------3-4-6-4-3-4-3h4p3------------|
 ------------------3-5-------------------5-3~~------|
 ------------3-5-6----------------------------------|
 ------3-5-6----------------------------------------|
 --4-6----------------------------------------------|
  pm..................


      D#             A#      C                 G
 Solo soy un pensador que esta soñando despierto
     G#            D#         A#
 calvando la mirada sobre este mundo enfermo

     D#              A#         C            G
 donde el odio es la puerta el dinero es la llave
        G#           D#             A#
 donde ignoras la guadaña de la muerte inseparable


        D#                A#
 pero cualquier noche puede salir el sol
  C             G
 que ilumine nuestra revolucion
       G#             D#
 pero cualquie noche puede salir el sol
      A#
 que ilumine nuestra revolucion


 (Ahora viene un solo de gaitas ke no e sacao)

  Punteo 1  con los acordes D# A# C G G# D# A#

 e|-------------------------------------------------------------------------------------------|
 B|--------------------------------------------------------6---6-------------------------6----|
 G|--------------------------------------------------5-7-8---8---8-6h8p6-8-7-5-7-5---5-7---8--|
 D|-----8--8-6-5-----5-6-5h6p5-----------------5-6-8-------------------------------8----------|
 A|-/6------------3------------8-6-------5-6-8------------------------------------------------|
 E|----------------------------------6-8------------------------------------------------------|
                                    pm.............


    D#                A#           C                  G
 el patron trabajando de Peón el obrero vive la autogestión
     G#                D#          A#
 el leon se comio a su domador el reo a juez por fin juzgó

     D#                A#               C                     G
 el militar como arma tiene un Yo-yo el okupa al pardo se traslado
       G#                D#              A#
 de la tierra la iglesia desapareció la bella durmiente por fin despertó


 Pero cualquier noche puede salir el sol....


 (Otra vez el solo con la gaita)


  Punteo 2 con los acordes D# A# C G G# D# A#
                                                            H
e|----------------------------------------------------------------------------------------------|
B|------------------------------6---------------------------------------------------------------|
G|------------------------5-7-8---8-7br-5-----888-5-------5-8-----------------------------------|
D|-----8--888-6-5-6-8---8-----------------8---------8-6-8-----8-6-5---556-8-6-5b-------5--------|
A|-/6----------------------------------------------------------------------------8-6-8----6~~---|
E|----------------------------------------------------------------------------------------------|


   D#               A#     C               G
 no sufras mas compañero basta ya de humilacion
   G#               D#         A#
 en nuestras manos tenemos la llama de la revolución


 Pero cualkier noche puede salir el sol....

 Este es el punteillo ke hace al final sobre los acordes D# A# C G G# D# A#

e|----------6-------8-6---8-6\\\\-----888-6---8-6---------6~~--8~~--10~~--11--13-----|
B|----6-8-9---9-8-------8-------------------9-----9-8--------------------------------|
G|-/8-------------8-----------------------------------8------------------------------|
D|-----------------------------------------------------------------------------------| x2 veces
A|-----------------------------------------------------------------------------------|
E|-----------------------------------------------------------------------------------|


 La cancion acaba en D#

 Si alguien saca los solos de gaita ke me los pase

                              PARA CUALQUIER DUDA:

                              TRIBAL2@
Suggest correction
Give kudos to tab author, rate the tab!
1 2 3 4 5
comments
print report bad tab
guest
You may want to rate the tab now too:
select rating
Wanna post a correction for this tab? Suggest correction