Oops, an error
Loading. Please wait.

Cualquier Noche Puede Salir El Sol Tab

version 2
version 2

Whole song

119 views 1 this week
no commentswrite comment
1 2 3 4 5
3 more votes to show rating
add to favorites
launch autoscroll
font size
0
reset
how to read this tab
guitar tuner
×
Best way to learn
"Cualquier Noche Puede Salir El Sol"
Autoscroll
slow
fast
+/-
esc
set tempo
stop
Tablatura: CARLOS (DIzzY)

intro G

---------------------------------
---------------------------------
---------------------------------
----121212--101010--999--777--5--
---------------------------------
---------------------------------

ESTO ES TODA LA CANCION CON QUINTAS Y TODAS ENTRE LOS TRASTES 12 Y 7 --G,D,E,B,C,G,D


2DO SOLO

------------------------------------------------------------
------------------------------------------------------------
-------12--12-12-11---------9--9-9-------------5--5-5-4-----
----12--------------14---9---------12-10-9---5----------7-5-(AQUI HACES UNA PEQUEÑA ESCALA RAPIDA)
------------------------------------------------------------
------------------------------------------------------------

LOS TONOS DE LA CANCION G,D,E,B,C,G,D

ESTO ES EL EFECTO DE LA GAITA

-----------------------------------------------------------------
------10-12------------------------------------------------------
---12-------12-9-16-14H16P14-12/11---12------12-11H12P11---------
----------------------------------------14-9-------------14-12---
-----------------------------------------------------------------
-----------------------------------------------------------------


------------------------------------------------------------
------------------------------------------------------------
------7-9------9-7H9P7------------------------------------12
---12-----10-5---------10-9¨¨¨¨-10101010-12121212-141414----
------------------------------------------------------------
------------------------------------------------------------

HAY UN CAMBIO DE POSICION DE TONOS EN LA CANCION DONDE DICE

 G                            D          B                 A
el militar como arma tiene un Yo-yo el okupa al pardo se traslado
      G                      B            D
de la tierra la iglesia desapareció la bella durmiente por fin despertó
AL TERMINAR ESTO TODO ES LO MISMO


AQUI HAY UN PEQUEÑO SOLO QUE NO LO HE SACADO AUN PERO ESTA ES LA FIGURITA QUE TOCAN AL ULTIMO Y SE COMBINA
CON LA GAITA

---------------------------------------------------
------10-12----12/15-13-12----15/17-15-13-17-15¨¨¨¨
---12-------12-------------12----------------------
---------------------------------------------------
---------------------------------------------------
---------------------------------------------------


----------------------------
--13/17-15-13-17-15-13-12---
--------------------------12
----------------------------
----------------------------
----------------------------


NOTA** HAY COMO 3 REQUINTILLOS RAPIDOS QUE LO MEJOR ES QUE AHI HAGAS UNA PEQUEÑA
ESCALA Y TERMINES EN EL TONO QUE ES PORQUE ESTE TIPO DE MUSICA O ESE TIPO DE REQUINTILLOS
NUNCA SE TOCAN IGUAL Y COMO SON FIGURAS RAPIDAS SERIA MUY DIFICIL QUE NOS LA APRENDIERAMOS
(DEJE PENDIENTE UN SOLO PEQUEÑO Y EL SOLO DE LA GAITA ES SOLO PARECIDO PORQUE UN INSTRUMENTO DE VIENTO
NUNCA SE PODRA SACAR IGUAL EN LA GUITARRA SOLO PARECIDO)

ESPERO Y LES GUSTE, ESTOY AFINADO AL 440
Y ESTA PARTITURA LA SAQUE PARA MI VAKITA ¡¡¡
Suggest correction
Give kudos to tab author, rate the tab!
1 2 3 4 5
comments
print report bad tab
guest
You may want to rate the tab now too:
select rating
Wanna post a correction for this tab? Suggest correction