Oops, an error
Loading. Please wait.

El Angel De La Muerte Tab

98 views 1 this week
no commentswrite comment
1 2 3 4 5
3 more votes to show rating
add to favorites
×
Save as Personal and add changes to this tab that will be seen only by you. Learn more ›
×
You can save this tab as Personal to edit and correct it or add notes. All changes will be seen only by you. Learn more »
save as personal
new!
launch autoscroll
font size
0
reset
how to read this tab
guitar tuner
Autoscroll
slow
fast
+/-
esc
set tempo
stop
YA... EN MOMENTOS DE OCIO...
ESTE TEMA ES MUI BUENO... ESTA ES LA VERSION VERDADERA
SIN DEFECTOS... LA CORRECCION 100% BUENA...
Y YO LA MANDO PUES.. JAJA
YA.. AKI VAMOS

Acordes
   D  | E | C  |D5 |A5 |E5*|G5* |F#5*|E5 |G5 |G#5
e|-10-|-7-|-8--|---|---|---|----|----|---|---|---|
B|-10-|-9-|-8--|---|---|---|----|----|---|---|---|
G|-11-|-9-|-9--|-7-|---|-9-|-12-|-11-|---|---|---|
D|-12-|-9-|-10-|-7-|-7-|-9-|-12-|-11-|-2-|-5-|-6-|
A|-12-|-7-|-10-|-5-|-7-|-7-|-10-|-9--|-2-|-5-|-6-|
E|-10-|---|-8--|---|-5-|---|----|----|-0-|-3-|-4-|

Intro
El Arpegio para las siguientes notas es:
               D                      E                     C
e|--------------------------|-------------------|-----------------------|
B|--------------------------|----------9--------|-----------------------|
G|-------------11-----------|-----9---(9)-9---9-|------------9----------|
D|-------12---(12)-12----12-|---9---9-------9---|------10------10----10-|
A|----12----12--------12----|-7-----------------|---10----10------10----|
E|-10-----------------------|-------------------|-8---------------------|

D                                     E
¿Qué es la vida?, ¿qué es la muerte?   Sueño o realidad,
C                        D
el cielo o el infierno,   La mentira o la verdad.
D                             E
Mil preguntas sin respuestas, me atormentan sin parar,
C                        D5
el suspense de la vida, me corta el respirar.

D5                            A5
Y mis gritos enmudecen, en la oscura frialdad,
       E5*                       G5*          F#5*  D5
de los muros que me encierran y reprimen mi libertad.

D5                                   E5
¿Qué es la vida?, ¿qué es la muerte? Sueño o realidad,
G5                      D5
el cielo o el infierno, La mentira o la verdad.
D5                               E5
Mil preguntas sin respuestas, me atormentan sin parar,
G5                     D5
el suspense de la vida, me corta el respirar.

D5                            A5
Y mis gritos enmudecen, en la oscura frialdad,
       E5*                          G5*      F#5*  D5
de los muros que me encierran y reprimen mi libertad.

D5                     G5
El ángel de la muerte, sigiloso y perspicaz,
D5                    G#5-A5 G#5-A5
EL ÁNGEL DE LA MUERTE
D5                     G5
El ángel de la muerte, sigiloso criminal,
D5                    G#5-A5 G#5-A5 D5
EL ÁNGEL DE LA MUERTE

Solo (preparense ke va largo):
e|-----------------------|---------------------|-----------------------|
B|-------5-8-7----5------|-------5-8-7----5----|-------5-8-7----5------|
G|-7---7--------7---7----|-7---7--------7------|-7---7--------7---7----|
D|-----------------------|---------------------|-----------------------|
A|-----------------------|---------------------|-----------------------|
E|-----------------------|---------------------|-----------------------|

|-------------------------------|-------------------------|
|-------------------------------|---3~--3-------5-7-8-10--|
|-7-6--6--4--4--2--2--0--0--2~~-|-2-------2~--2-----------|
|-------------------------------|-------------------------|
|-------------------------------|-------------------------|
|-------------------------------|-------------------------|

|----------------------------------|--------------------------|
|-------3-3--5-5--7-7--8-8--10-10--|-10-10-10-10-8-7-8-7------|
|-2~--2----------------------------|---------------------9-7--|
|----------------------------------|--------------------------|
|----------------------------------|--------------------------|
|----------------------------------|--------------------------|

|--------------------10-10-9-7--|------------------------------|
|-10-10-10-10-8-7-8~------------|-10-10-10-10-8-7-8-10-8-7-8-7-|
|-------------------------------|------------------------------|
|-------------------------------|------------------------------|
|-------------------------------|------------------------------|
|-------------------------------|------------------------------|

|-----------------------|-10-10-10-12-10-9-10-9--------|
|-5~5--7~7--8~8--10~10--|-----------------------12-10--|
|-----------------------|------------------------------|
|-----------------------|------------------------------|
|-----------------------|------------------------------|
|-----------------------|------------------------------|

|-10-10-10-12-10-9-----|
|------------------10~-|
|----------------------|
|----------------------|
|----------------------|
|----------------------|

|-12-12-14-12-10-12-10-9-10-9-7-9-7-5-3-3-2-2-0-0---------------|
|-------------------------------------------------3-3-2-2-2h3~--|
|---------------------------------------------------------------|
|---------------------------------------------------------------|
|---------------------------------------------------------------|
|---------------------------------------------------------------|

D5                       E5
Y las flores de la vida, desojadas sin piedad,
G5                                    D5
por cuatro locos desquiciados, que nos quieren controlar.
D5                        E5
La esperanza fusilada, una niña echó a llorar,
G5                    D5
su cuerpo mutilado, a manos de militar.

D5                            A5
Y mis gritos enmudecen, en la oscura frialdad,
       E5*                          G5*      F#5*  D5
de los muros que me encierran y reprimen mi libertad.

D5                     G5
El ángel de la muerte, sigiloso y perspicaz,
D5                    G#5-A5 G#5-A5
EL ÁNGEL DE LA MUERTE
D5                     G5
El ángel de la muerte, sigiloso criminal,
D5                    G#5-A5 G#5-A5(varias veces rapido)
EL ÁNGEL DE LA MUERTE  luego decienden con el dedo,
                        pero con uno marcando la nota

Aki viene un solillo ke es medio asi...

e|-------------------------|------------------|
B|--------5-------8-7-5-7--|--------5---------|
G|-7---7----7---7----------|-7---7----7--7-6~-|
D|-------------------------|------------------|
A|-------------------------|------------------|
E|-------------------------|------------------|
aora inprovisan con eso ke es la base... hasta el final de la cancion

¿Qué es la vida?, ¿qué es la muerte?

Sueño o realidad,

¿Qué es la vida?, ¿qué es la muerte?

Solo un poema sin terminar
D5


uuff... me salio costoso.... ya... traté de ser lo mas claro posible
... ya... cualkier consulta, putiada, correccion o peticion...
va a mi correo


aora... en trabajo x OBREROS SOMOS
Suggest correction
Give kudos to tab author, rate the tab!
1 2 3 4 5
comments
print report bad tab
guest
Wanna post a correction for this tab? Suggest correction