Oops, an error
Loading. Please wait.

El Rock Del Obrero Bass

20 views 1 this week
no commentswrite comment
1 2 3 4 5
3 more votes to show rating
add to favorites
launch autoscroll
font size
0
reset
guitar tuner
×
Best way to learn
"El Rock Del Obrero"
Autoscroll
slow
fast
+/-
esc
set tempo
stop
Intro del bajo

?Salud compañeros la función a terminado? 24 seg
G------------------------------------------
D----5--3--2----------------------------------
A------------5---3---------------------------          X1
E------------------------------------------


Después empieza el bajo con la guitarra 27seg
G--------------------------------------------------------------
D-------------------------------------------------333333--------
A-------33333-------------------------333333-----------3333333--
E----------------333333----111111-----------------------------
---3332333--3--5--7--3-


Después empieza el bajo con la guitarra 27seg
G------------------------------------------------------------
D-------------------------------------------------333333-----
A-------33333-------------------------333333-----------3333333--
E----------------333333----111111--------------------------------
3332333--3--5--7--3-


Después en la primera parte hace lo mismo peor después varia
G---------------------------------------------------------
D------------------------------------------2--------------
A----33333----------------------3----5-----3----------3333-  x5
E------------3333----11111-------------------111111------
3332332---3---5-----7---


Cuando hace el solo la guitarra el bajo hace esto  1:42 min.
G---------------------------------------------------------
D---------------------------------------------------------
A----333333-------------------------------------33333333
E-----------3333333--111111---000000----11111----------
3332333----3---5---7---3


Despues viene la parte en donde canta solo
G------------------------------------------
D------------------------------------------
A------------------------------------------
E----------3------5-----7-------3----------

despues se repite esto otra vez
G---------------------------------------------------------
D------------------------------------------2--------------
A----33333----------------------3----5-----3----------3333
E------------3333----11111-------------------111111-
-3332332---3---5-----7---

y el final es asi 02:57

G-------------------------------------------------
D-------------------------------------------------
A-------------------------------------------------
E---3332333----5-----7---5----3332333-----5--7--5-


G------------------------------------------------------
D------------------------------------------------------
A-------------------------------3333333333333-----------
E----2332---332---332--332------------------------------

y eso es todo cualkier duda a mi mail

PD: SI LA TOKAN ASI SUENA RARO PERO LES ASEGURO KE ESTA BUENA

SALUDOS LIBERTARIOS Y COMBATIVOS
Suggest correction
Give kudos to tab author, rate the tab!
1 2 3 4 5
comments
print report bad tab
guest
You may want to rate the tab now too:
select rating
Wanna post a correction for this tab? Suggest correction