Oops, an error
Loading. Please wait.

Grita Y No Pares De Gritar Tab

14 views 1 this week
no commentswrite comment
1 2 3 4 5
3 more votes to show rating
add to favorites
launch autoscroll
font size
0
reset
how to read this tab
guitar tuner
×
Best way to learn
"Grita Y No Pares De Gritar"
Autoscroll
slow
fast
+/-
esc
set tempo
stop
Tema clasico de los MUERTOS DE CRISTO que es buenisico...
Parte con solo de baretia:


La rabia te está quemando, y te sientes inferior,
los demás van aprovechando, tu humilde situación,

E8...
E8              C         E8             F8
El miedo hiela tu sangre, el silencio se apodera de ti,
E8              C         E8             F8
el orgullo pisoteado, es tu manera de vivir.

E                                  F        E
El Estado está contento, cuando la peña está exprimiendo.
E                                  F        E
Más aún si oye lamentos, de dolor y sufrimiento.

E8                F8
¡Cómo puede ser!, ¡no logro comprender!
E8                F8
¡como puede ser! Que en un país manden tres.
E8                F8
¿Cómo puede ser?, no logro comprender,
E8                F8
¿Cómo puede ser?, que a estos tres,
E8                F8
¿Cómo puede ser?, no logro comprender
E8                F8
¿Cómo puede ser?, haya que obedecer.

E8  F8 ...

|-----------------------------10-----------------|
|-12~--13-12-10-12~--13-12-10--------------------|
|---------------------------------10-9-9vbajando-|
|------------------------------------------------|
|------------------------------------------------|
|------------------------------------------------|

E8  F8..

|-15*-14*-12*-10/8-7--7---------7---------7---------7----------|
|--------------------------------------------------------------|
|-----------------------9-7-7-7---9-7-7-7---9-7-7-7----9-7-7-7-|
|--------------------------------------------------------------|
|--------------------------------------------------------------|
|--------------------------------------------------------------|

E8                F8
¿Cómo puede ser?, no logro comprender,
E8                F8
¿Cómo puede ser?, que a estos tres,
E8                F8
¿Cómo puede ser?, no logro comprender
E8                F8
¿Cómo puede ser?, haya que obedecer.

E8 C E8 F8

E8              C
Si la rabia te está aplacando,
E8              C
y te sientes superior,
E8              C
Si los demás salen corriendo,
E8              C
por el cambio de situación,

E8       F8      C
¡Grita y no pares de gritar!,
E8       F8      C      A  F  A  F
Grita anunciando la verdad,
E8       F8      C
¡Grita y no pares de gritar!,
E8       F8      C      A  F  A  F
¡Grita anarquía y libertad!.

Ahi otros solitos que los pueden sacar uds
Suggest correction
Give kudos to tab author, rate the tab!
1 2 3 4 5
comments
print report bad tab
guest
You may want to rate the tab now too:
select rating
Wanna post a correction for this tab? Suggest correction