Oops, an error
Loading. Please wait.

Ni Dios Ni Amo Tab

147 views 6 this week
no commentswrite comment
1 2 3 4 5
3 more votes to show rating
add to favorites
launch autoscroll
font size
0
reset
how to read this tab
guitar tuner
Autoscroll
slow
fast
+/-
esc
set tempo
stop
Help us to improve Ultimate-Guitar.com Take our survey!
×
e =estirar

la base del tema es = b d g f#

Solo:

|--------------------------------------------------------
|--------------------------------------------------------
|----------------------7-9--7-9---9-9-9-9-9---11-11-11---
|--7/S/9-99-7/S/9-999-------------------------11-11-11---
|--------------------------------------------------------
|--------------------------------------------------------

|-----------------------14-15-16e--
|----------------------------------
|-----5s7--7s9--9s11---------------
|-----5s7--7s9--9s11---------------
|-7s9------------------------------
|----------------------------------
|----------------------------------


p=pull off


|--6e-6e-6e-----------------------------------------
|------------10/p/8--10/p/8---5-7-5-----------------
|-----------------------------------7----9-7--------
|--------------------------------------------9-7-9--
|---------------------------------------------------
|---------------------------------------------------


|-------------------------------------10e--12-10----10-----------
|-------------7-10------7-10-------7-------------12----12-10-12--
|----7-9-10e-------7-10------7-10--------------------------------
|--9-------------------------------------------------------------
|----------------------------------------------------------------
|----------------------------------------------------------------


              |muy rapido 5 veces|
              |                  |
|-----10-12----12-13-12------------13-13-13-12----------12-----
|--12-------------------15-12------------------15-14-15--------
|----------------------------------------------------------14--
|--------------------------------------------------------------
|--------------------------------------------------------------
|--------------------------------------------------------------


|-----------------------------------------------------------
|------------------------------12------12-10------10-12-10e-
|--14-11-14e--14p11--14p11--14----14---------11-11----------
|-----------------------------------------------------------
|-----------------------------------------------------------
|-----------------------------------------------------------


Lanza una piedra .....

|----9--------------
|---------10--------
|-11---11----9-11t--
|-------------------
|-------------------
|-------------------


escupe tu odio contra el tirano ....

|----9--------------
|---------10--------
|-11---11----9-11t--
|-------------------
|-------------------
|-------------------
Suggest correction
Give kudos to tab author, rate the tab!
1 2 3 4 5
comments
print report bad tab
guest
You may want to rate the tab now too:
select rating
Wanna post a correction for this tab? Suggest correction