Oops, an error
Loading. Please wait.

Para Elisa Bass Tab

9,850 views 3 this week
no commentswrite comment
1 2 3 4 5
3 more votes to show rating
add to favorites
launch autoscroll
font size
0
reset
guitar tuner
×
Best way to learn
"Para Elisa"
Autoscroll
slow
fast
+/-
esc
set tempo
stop
Aqui tienen un tab que hize para la grandiosa cancion
"Para Elisa" de LMC, es mi primer tab, osea debe tener
errores por montones,pero algunas partes
estoy 100% seguro que es lo que va, servira como
guia me imagino!

como este site es tan HP tuve que poner el link de LMC jeje:

www.losmuertosdecristo.com

|------------------------|
|------------------------|
|-4-44------------4444---|
|------2-22-5-55-------7-|


|--------------------------------------------|
|--------------------------------------------|
|-444444-666666-7777777--------------2-4-2---|
|-----------------------22222222-2-4-------4-|

|-------------------------------------------|
|-------------------------------------------|
|44444-2222------444444444-2-------2-4-2----|
|-----------4444---------------2-4-------4--|

|--------------------------------------------|
|--------------------------------------------|
|-444444-666666-7777777--------------2-4-2---|
|-----------------------22222222-2-4-------4-|

|-------------------------------------------|
|-------------------------------------------|
|44444-2222------444444444-2-------2-4-2----|
|-----------4444---------------2-4-------4--|


|-------------------------|
|-------------------------| X2
|-4-44------------4444-7--|
|------2-22-5-55----------|

|------------------------------------|
|------------------------------------|
|-4444444444---------------2-4-2-----|
|------------222222222-2-4-------4---|

|----------------------------------|
|----------------------------------|
|------------444444-2-----2-4-2----|
|55555555555----------2-4-------4--|

|------------------------------------|
|------------------------------------|
|-4444444444---------------2-4-2-----|
|------------222222222-2-4-------4---|

|----------------------------------|
|----------------------------------|
|------------444444-2-----2-4-2----|
|55555555555----------2-4-------4--|

Pre CORO:

|-------------------------------|
|-------------------------------|
|-777--------44444-----2-4-2----| X2
|-----777777-------2-4-------4--|

|-------------------------------|
|-------------------------------|
|444--------444444-----2-4-2----|
|----555555--------2-4-------4--|


|-------------------------------|
|-------------------------------|
|444----------------------------|
|----555555-44455555666667777-9-|


Coro:

|----------------------------|
|----------------------------|
|-777-------------1111111111-|
|-----7777777-999------------|

|------------------------------------|
|------------------------------------|
|121212--------------121212-9999999--|
|-------121212121212-----------------|


|------------------------|
|------------------------|
|-4-44------------4444-2-|
|------2-22-5-55---------|


|--------------------------------------------|
|--------------------------------------------|
|-444444-666666-7777777--------------2-4-2---|
|-----------------------22222222-2-4-------4-|

|-------------------------------------------|
|-------------------------------------------|
|44444-2222------444444444-2-------2-4-2----|
|-----------4444---------------2-4-------4--|

|--------------------------------------------|
|--------------------------------------------|
|-444444-666666-7777777--------------2-4-2---|
|-----------------------22222222-2-4-------4-|

|-------------------------------------------|
|-------------------------------------------|
|44444-2222------444444444-2-------2-4-2----|
|-----------4444---------------2-4-------4~-|

Puente:

|--------------------------------------|
|--------------------------------------|
|-44444444-----------------------------|
|----------5555555-0000000-443322-44---|


|--------------------------------------|
|--------------------------------------|
|-44444444-----------------442244-44---|
|----------5555555-0000000-------------|


|-----------------------|
|-----------------------|
|-444-------------------|
|-----555-000-443322-44-|

|---------------------------|
|---------------------------|
|-444------------5-4-5-7-6~-|
|-----555-4-2-4~------------|

Coro:
|----------------------------|
|----------------------------|
|-777-------------1111111111-|
|-----7777777-999------------|

|------------------------------------|
|------------------------------------|
|121212--------------121212-9999999--|
|-------121212121212-----------------|

Solo:

|-------------------------|
|-------------------------|
|-4-44------------4444-7--| X2
|------2-22-5-55----------|

|----------------------------------------------------------------------|
|----------------------------------------------------------------------|
|-4444444444----------------2-4-2-------------4444444-----2-4-2--------|
|------------2222222222-2-4-------4-555555555---------2-4-------4------|


|---------------------------------------------------------------------|
|---------------------------------------------------------------------|
|-4444444444----------------2-4-2-------------4444444-----2-4-2----4~-|
|------------2222222222-2-4-------4-555555555---------2-4-------4-----|


Puente II


|-----------------------------------|
|-----------------------------------|
|---4444-------------------44444444-|
|--------222222222-5555555----------|

|------------------------------------------------------------------|
|------------------------------------------------------------------|
|9/-4444--------55555-77777-55555-77777-55555-7777-9999-7777-99999-|
|-------555555-----------------------------------------------------|

Coro/final:

|----------------------------------------------------------------|
|----------------------------------------------------------------|
|-777-------------1111111111-121212--------------121212-9999999--|
|-----7777777-999-------------------121212121212-----------------|

|-------------------------------------------------------------------------------|
|-------------------------------------------------------------------------------|
|-777-------------1111111111-121212--------------121212-9999999-777-999-777-999-|
|-----7777777-999-------------------121212121212--------------------------------|


|----------------------------------------------------------------|
|----------------------------------------------------------------|
|-777-------------1111111111-121212--------------121212-9999999--|
|-----7777777-999-------------------121212121212-----------------|

|------------------------------------------------------------------------------------------|
|------------------------------------------------------------------------------------------|
|-777-------------1111111111-121212--------------121212-9999999-777-999-777-999-777-9-77~--|
|-----7777777-999-------------------121212121212-------------------------------------------|


Ahi, la tienen!

Libertad, y abajo con todo sistema opresor!!!
Suggest correction
Give kudos to tab author, rate the tab!
1 2 3 4 5
comments
print report bad tab
guest
You may want to rate the tab now too:
select rating
Wanna post a correction for this tab? Suggest correction