Oops, an error
Loading. Please wait.

El Instante De Un Amor (Sonidos Del Silencio) Tab

129 views 1 this week
no commentswrite comment
1 2 3 4 5
3 more votes to show rating
add to favorites
launch autoscroll
font size
0
reset
how to read this tab
guitar tuner
×
Best way to learn
"El Instante De Un Amor (sonidos Del Silencio)"
Autoscroll
slow
fast
+/-
esc
set tempo
stop
     G
Me cansaba de esperar
                  Am  C
el instante del amor
                      F     C
es en vano el querer descubrir
                      F     C
el momento en que vas a sentir
         F                    C
de improviso el corazon palpitar
 F    C   C/B  Am   C   
palpitar,
     G    Am
de amor eterno.

                         G
Cuando al fin llego el amor
                  Am     C
me causo tanto dolor
                       F    C
se han perdido tantas lagrimas 
                  F     C
tuve miedo de no verte mas
          F                         C
y estuve yo, y es lo triste del querer
   F    C  C/B  Am C
de esperar     
      G        Am
y al fin triunfar.


El instante de un amor


           Amsus2
      e-|-----0-----0-----0-----0--|-----0-----0-----0-----0--|
      B-|--------0-----------0-----|--------0-----------0-----|
      G-|--2-----------2-----------|--2-----------2-----------|
      D-|--------------------------|--------------------------|
      A-|--------------------------|--------------------------|
      E-|--------------------------|--------------------------|
                                      

           G5
      e-|-----3-----3-----3-----3--|-----3-----3-----3--------|
       B-|--------------------------|-----------------------0--|
      G-|--------0-----------0-----|--------0-----------0-----|
      D-|--------------------------|--------------------------|
      A-|--------------------------|--------------------------|
      E-|--3-----------3-----------|--3-----------3-----------|
         

          Am                     C
      e-|-----0-----------0--------|-----0-----------0--------|
      B-|-----------1-----------1--|-----------1-----------1--|
      G-|--------2-----------2-----|--------0-----------0-----|
      D-|--------------2-----------|--2-----------2-----------|
      A-|--0-----------------------|--------------------------|
      E-|--------------------------|--------------------------|
          

           F           C                 
      e-|-----1-----------0--------|-----0-----------0--------|
      B-|-----------0-----------1--|-----------1-----------1--|
      G-|--------2-----------0-----|--------0-----------0-----|
      D-|--3-----------------------|--------------------------|
      A-|--------------3-----------|--3-----------3-----------|
      E-|--------------------------|--------------------------|
        

           F           C          
      e-|-----1-----------0--------|-----0-----------1--------|
      B-|-----------0-----------1--|-----------1-----------1--|
      G-|--------2-----------0-----|--------0-----------2-----|
      D-|--------------------------|--------------------------|
      A-|--------------3-----------|--3-----------------------|
      E-|--1-----------------------|--------------1-----------|
          

           F                                      C             
      e-|-----1-----------1--------|-----1-----------0--------|
      B-|-----------1-----------1--|-----------1-----------1--|
      G-|--------2-----------2-----|--------2-----------0-----|
      D-|--------------------------|--------------------------|
      A-|--------------------------|--------------3-----------|
      E-|--1-----------1-----------|--1-----------------------|
             

                 F     C       C/B    Am          C              
      e-|-----0-----------0--------|-----0-----0--------------|
      B-|--------------------1-----|--------1-----------1--0--|
      G-|--------------------------|-----2-----------0--------|
      D-|--------3--2--------------|--------------------------|
      A-|--3-----------3--------2--|--0-----------3-----------|
      E-|--------------------------|--------------------------|
              

          G/B          G             Amsus2
      e-|-----3-----------3--------|-----0-----0-----0-----0--|
      B-|-----------0-----------0--|--------0-----------0-----|
      G-|--------0-----------0-----|--2-----------2-----------|
      D-|--------------------------|--------------------------|
      A-|--2-----------------------|--------------------------|
      E-|--------------3-----------|--------------------------|
Suggest correction
Give kudos to tab author, rate the tab!
1 2 3 4 5
comments
print report bad tab
guest
You may want to rate the tab now too:
select rating
Wanna post a correction for this tab? Suggest correction