Oops, an error
Loading. Please wait.

Amanecer Blanco chords

174 views 1 this week
no commentswrite comment
1 2 3 4 5
3 more votes to show rating
add to favorites
×
Save as Personal and add changes to this tab that will be seen only by you. Learn more ›
×
You can save this tab as Personal to edit and correct it or add notes. All changes will be seen only by you. Learn more »
launch autoscroll
font size
0
reset
transpose
0
reset
simplify chords
display chords
guitar tuner
edit
Autoscroll
slow
fast
+/-
esc
set tempo
stop
Strumming
There is no strumming pattern for this song yet. and get +5 IQ
Paso una version de acordes abiertos, mas para
tocar en acustica. Luego abajo riff y acordes
para distorsion.

A9=x02200
Am=x02210
Em=022000
C=032010
D=x00232

El tema es en 16 tiempos, marcados asi:
123 123 123 123 12 12 y repite (el acento esta en "1", claro...)
-esto lo explico porque hace un tiempo a mi me hubiera servido-
[ej. intro: A9  A9  Am  A9  A9 A9
            123 123 123 123 12 12 ]

Intro: [ A9 (Am-A9) -  C ]x2

Em           C
     Un desafio...
Em                C
     volverlo a olvidar ¿?
Em                C
     y ahora maldigo
Em

C                D
rezando verte cambiar,
     C
cambiar.
   D
Jamas
            [ A9 (Am-A9) -  C ]x4
volver atras...

[todo esto se repite]

Ahora paso la cosa un poco mas para electrica, claro que se
puede tocar en tu ukulele.

Intro:
      A9                 Am         A9
E||--------------------------------------------------------|
B||--------------------------------------------------------|
G||--------------------------------------------------------|
D||---7---------9--------10---------9---------7------9-----|
A||---0---------0---------0---------0---------0------0-----|
E||--(0)-----------------(0)-----------------(0)-----------|

   C
--------------------------------------------------------|
--------------------------------------------------------|
--------------------------------------------------------|
---5---------5---------5---------5---------5------5-----|
---3---------3---------3---------3---------3------3-----|
--(0)-----------------(0)-----------------(0)-----------|

Parte 1 (Em-C):
      Em          C
E||----------|------------|
B||----------|------------|
G||--(4)-----|---(5)------|
D||---5------|----5-------|
A||---2------|----3-------|
E||---0------|----0-------|

Parte 2 (D-C):

E||---------|----------|
B||---------|----------|
G||--(7)----|----(5)---|
D||---7-----|-----5----|
A||---5-----|-----3----|
E||---5-----|-----3----|

Termina en A5 o A9 o Am.

Para buscar los solos, fijense de merodear con la 5ta cuerda al
aire -como en la intro- por la escala en la 4ta.
No tengo el cd conmigo en este momento, por eso la duda en esa
parte de la letra.

            
            
Suggest correction
Creating personal tab
Creating personal tab
You can edit any tab online and save it as your Personal.

You can edit, replace or remove any tab part or add personal notes – all changes will be seen only by you.

Personal tabs can be accessed anytime from any device, even offline.
Learn more »
Give kudos to tab author, rate the tab!
1 2 3 4 5
comments
print report bad tab
guest
Wanna post a correction for this tab? Suggest correction