Oops, an error
Loading. Please wait.

Gracias A Dios tab

23 views 1 this week
no commentswrite comment
1 2 3 4 5
3 more votes to show rating
add to favorites
×
Save as Personal and add changes to this tab that will be seen only by you. Learn more ›
×
You can save this tab as Personal to edit and correct it or add notes. All changes will be seen only by you. Learn more »
launch autoscroll
font size
0
reset
how to read this tab
guitar tuner
edit
Autoscroll
slow
fast
+/-
esc
set tempo
stop
bueno hay les va esta rola que me pidio el compa
Alan Gastelum y ps hay quedo se escucha bien
espero y le sirva

 (REQUINTO)
5|---------------------------------------------------
4|---------------------------------------------------
3|---------------------------------------------------
2|-3-3----------------------3-3---------------------3
1|----0-3-3-0-3-3-0-3/5-3-3-----0-3-3-0-2-2-0-2-2-0--

5|----------------------------------------------
4|----------------------------------------------
3|----------------------------------------------
2|15-15-15/13-13-13/12-12-13-13-12-10---3-3-0-3---3-
1|14-14-14/12-12-12/10-10-12-12-10-8--0---------0---

                 G
 Cuando estoy con tigo
             Bm
 no me falta nada
           C
 solo tu cariño
          D
 solo tus palabras
                 G
 cuando estoy con tigo
             Bm
 se cambia mi vida
            C
 aun mundo divino
           D
 lleno de alegrias
          G
 cuando estoy contigo
               Bm
 no me importa nada
         C
 solo tu cariño
            D
 solo tus palabras
   G
 tu eres el amor
 G  G  G     C
 que yo esperaba
                     D
 lo que tanto habia soñado
                  G
 hasta que llegaste tu
Bm                  C
 le doy gracias a la vida
              D
 y gracias al amor
              G
 por estar con tigo

 (AQUI EL REQUINTO DE ARRIBA)
              G
 Por averte encontrado
              Bm
 por averte conosido
             C
 por ser tan feliz
            D
 y feliz con tigo
           G
 por que ahora estas con migo
                    Bm
 por que ahora estoy con tigo
          C
 yo le doy gracias muchas gracias
          D
 gracias a dios
                    G
 le doy gracias a la vida
              Bm
 y gracias al amor
           C
 por aver nacido en el mismo sitio
     D
 tu y yo
   G
 tu eres el amor
 G  G  G    C
 que yo esperaba
                      D
 lo que tanto habia soñado
                   G
 hasta que llegaste tu
Bm                   C
 le doy gracias a la vida
              D
 y gracias al amor
            G
 por estar con tigo
Bm                   C
 le doy gracias a la vida
             D   (SILENCIO)
 y gracias al amor
                   (REQUINTO)
 por estar con tigo

5|-----------------------------------------------------
4|-----------------------------------------------------
3|-----------------------------------------------------
2|-3-3-----------------------3-3---------------------3-
1|-----0-3-3-0-3-3-0-3/5-3-3-----0-3-3-0-2-2-0-2-2-0---
                                                    ----G
6|------------------------------------------------------3
5|------------------------------------------------------5
4|------------------------------------------------------5
3|------------------------------------------------------4
2|-15-15-15/13--13-13/12-12-13-13-12-10---3-3-0-3-------3
1|-14-14-14/12--12-12/10-10-12-12-10-8--0---------0-0/2-3

Bueno ps hay quedo la rolita suena bien
bueno ps aprovecho pa dedicarla a ¡¡¡¡Estephanii!!!!! jaja
bueno ps ya saben dudas o sugerencias a mi correo

 el_cotan_chido@

            
            
Suggest correction
Creating personal tab
Creating personal tab
You can edit any tab online and save it as your Personal.

You can edit, replace or remove any tab part or add personal notes – all changes will be seen only by you.

Personal tabs can be accessed anytime from any device, even offline.
Learn more »
Give kudos to tab author, rate the tab!
1 2 3 4 5
comments
print report bad tab
guest
Wanna post a correction for this tab? Suggest correction