Oops, an error
Loading. Please wait.

Indispensable tab

14 views 1 this week
no commentswrite comment
1 2 3 4 5
3 more votes to show rating
add to favorites
×
Save as Personal and add changes to this tab that will be seen only by you. Learn more ›
×
You can save this tab as Personal to edit and correct it or add notes. All changes will be seen only by you. Learn more »
launch autoscroll
font size
0
reset
how to read this tab
guitar tuner
edit
Autoscroll
slow
fast
+/-
esc
set tempo
stop
aki les dejo esta rolita de los nietos esta bien cool
es de su nuevo disko disfrutenla ajajajjaja ... XD

Rekinto:

E) -------------------------------------------
A) -------------------------------------------
D) -------------------------------------------
G) -------------------------------------------
B) -------------------------------------------
e) --12-12-12-9-12-12-12-12-12/14-10-9-10-10--


E) -------------------------------------------------
A) -------------------------------------------------
D) -------------------------------------------------
G) -------------------------------------------------
B) -------------------------------------------------
e) --7-9-10-10-10-10-10-10-10-10-9-----5-7-9-7-5-7--


E) -----------------------------------
A) -----------------------------------
D) -----------------------------------
G) --------------------1--------------
B) --0-2-3-3-2-3-3-2-0-0--------------
e) --0-0-2-2-0-2-2-0-0-----4-5-7-5-4--


E) -------------------------------------------------
A) -------------------------------------------------
D) -------------------------------------------------
G) -------------------------------------------------
B) -10-----10----10-----10---10----10---10---10-----
e) ----9-----12-----9-----12-----9----9----9----9---


A                D
La promesa de quererte
              E7                A
No ha sido porque tú eres tan bella
                D
He tenido buena suerte
                   E7                  A
Porque tú tienes la virtud de ser perfecta
 C#m                 F#m
Bella por dentro y por fuera
 C#m              F#m
De luz la vida me llenas
       D                         E7
Así como un ángel que vino ala tierra.


A             D
No creí enamorarte
             E7                          A
Pues te sentía lejos de mí como una estrella
                   D
Hoy me tienes en tus manos
                E7                      A
Y me moriría por ti si de mi vida te fueras
C#m            F#m
Caminaría sin camino
C#m                 F#m
Para mi no habría destino
             D                    E7
Así como el viento sin ningún sentido.


A                              D
Lo que tu eres para mi no puedo explicar
           E7                    A
Yo siento que eres el agua en mi mar
                                D
Algo indispensable la dueña de mi aliento
 E7                 A                D
Con la que quiero llegar algún día al altar
                   E7                A
Y resumiendo diría que tu eres mi felicidad.

Rekinto...

No creí enamorarte.....

Final:
E) -------------------------------------------
A) -------------------------------------------
D) -------------------------------------------
G) -------------------------------------------
B) -------------------------------------------
e) --12-12-12-9-12-12-12-12-12/14-10-9-10-10--

E) ---------------------------------------
A) ---------------------------------------
D) ---------------------------------------
G) ---------------------------------------
B) ---------------------------------------
e) --7-9-10-10-9-10-10-9-7-4--4-5-7-5-4---


E) -----------------------
A) -----------------------
D) -----------------------
G) -----------------------
B) -----------------------
e) --9-0-12-0-9-0-7-0-5---


sale poes ai kedo esta rolita kon los tonos originales
de la kansion
un saludo pa todos mis kompas de cd obregon
kualquier duda, aklaracion, peticiones o lo q sea agan
melas llegar ami korreo...
nos vemosss....
Suggest correction
Creating personal tab
Creating personal tab
You can edit any tab online and save it as your Personal.

You can edit, replace or remove any tab part or add personal notes – all changes will be seen only by you.

Personal tabs can be accessed anytime from any device, even offline.
Learn more »
Give kudos to tab author, rate the tab!
1 2 3 4 5
comments
print report bad tab
guest
Wanna post a correction for this tab? Suggest correction