Oops, an error
Loading. Please wait.

Popurri De Los Nietos chords

49 views 3 this week
no commentswrite comment
1 2 3 4 5
3 more votes to show rating
add to favorites
×
Save as Personal and add changes to this tab that will be seen only by you. Learn more ›
×
You can save this tab as Personal to edit and correct it or add notes. All changes will be seen only by you. Learn more »
launch autoscroll
font size
0
reset
transpose
0
reset
display chords
guitar tuner
edit
Autoscroll
slow
fast
+/-
esc
set tempo
stop
Strumming
There is no strumming pattern for this song yet. and get +5 IQ
weps po0es a lo0s kerian esta r0o0la es la del popurri No 2 sas i pss
ahista la cumbia
m0orena i la demas
ja


E) -------------------------------------------------
A) -------------------------------------------------
D) -------------------------------------------------
G) -4----------------4----------------4-4-4-----4-3-
B) -4-------4-2-4-4--4-------4-2-4-4--------2-------
e) ---2-0-0------------2-0-0------------------0-----


E) -------------------------------------------------
A) -------------------------------------------------
D) -------------------------------------------------
G) -4--------------4--------------------------------
B) -4--------------4--------------4-------------2---
e) ---2-4-2-4-2-2----2-4-2-4-2-2----2-2-0-4-0-2-----


E) ----------------------------------|
A) ----------------------------------|
D) ----------------------------------|
G) ------------------------------4---|
B) -4-------------2--4-------4-2-----|
e) ---2-2-0-4-0-2------2-2-0---------|


INTRO:


                        B
Te traigo esta cumbia morena
                         B
Te traigo esta cumbia morena
B                        F# 7
Para que bailes conmigo.

F# 7
Para que bailes conmigo

Para que bailes conmigo
                       B  E  F#  B E F#
Sabiendo que soy tu amigo.


                      B
Si sabes que por ti sufro
B
Si sabes que por ti muero
                     F# 7
Si sabes que yo te quiero
E                     B
Que yo te quiero, que yo te quiero.

F# 7
Si sabes que por ti sufro
 B
Si sabes que por ti muero
 F# 7
Si sabes que yo te quiero
 E                       B
Que yo te quiero, que yo te quiero.


INTRO:
B     F# 7                B
Me fui a pasar la tarde junto con mi huerita
      F# 7              B
Nos fuimos caminando, rumbo pa la lomita
   F# 7                          B
Y con comodidad, no tiramos al pasto
   F# 7                             B
Y la hierba se movía, se movía, se movía
    F# 7                            B
La hierba se movía, se movía, se movía.

B                  F# 7                B
Me fui a pasar la tarde junto con mi huerita
       F# 7              B
Nos fuimos caminando, rumbo pa la lomita
  F# 7                          B
Y con comodidad, no tiramos al pasto
  F# 7                             B
Y la hierba se movía, se movía, se movía
 F# 7                            B
La hierba se movía, se movía, se movía.


Ay cosas maravillosas
    F# 7           B
Que no se olvidan el la vida
    F# 7
Ay cosas maravillosas
 B
Como la tarde en que te tenía.

     E
Ay cosas maravillosas
    F# 7             B
Que no se olvidan el la vida
    F# 7
Ay cosas maravillosas
 B
Como la tarde en que te tenía.

bo0eno plebada esper0o i me aia kedado bn i le entiendan i si po0es le
corregire mientras aista la
peticion

            
            
Suggest correction
Creating personal tab
Creating personal tab
You can edit any tab online and save it as your Personal.

You can edit, replace or remove any tab part or add personal notes – all changes will be seen only by you.

Personal tabs can be accessed anytime from any device, even offline.
Learn more »
Give kudos to tab author, rate the tab!
1 2 3 4 5
comments
print report bad tab
guest
Wanna post a correction for this tab? Suggest correction