Oops, an error
Loading. Please wait.

Quiero Que Duermas Conmigo tab

46 views 1 this week
no commentswrite comment
1 2 3 4 5
3 more votes to show rating
add to favorites
×
Save as Personal and add changes to this tab that will be seen only by you. Learn more ›
×
You can save this tab as Personal to edit and correct it or add notes. All changes will be seen only by you. Learn more »
launch autoscroll
font size
0
reset
how to read this tab
guitar tuner
edit
Autoscroll
slow
fast
+/-
esc
set tempo
stop
Aqui les dejo esta cancion, de lo mas nuevo de nietos, esta fregona
y facil de tocar... saludosss

-----------------------------------------

Esta noche quiero que duermas conmigo....
e)--14-14-17-15-15/17-15-14--17--15--14--17-17-15-14--
B)--15-15-19-17-17/19-17-15---19--17--15-19-19-17-15--
G)----------------------------------------------------
D)----------------------------------------------------
A)----------------------------------------------------
E)----------------------------------------------------
(continuacion de arriba)
e)--14-14-15-14-15-12--0-0-------
B)--15-15-17-15-17-13--1-1-3-1-3-
G)-------------------------4-2-4-
D)-------------------------------
A)-------------------------------
E)-------------------------------


e)--14-14-17-15-15/17-15-14--17--15--14--17-17-15-14-
B)--15-15-19-17-17/19-17-15---19--17--15-19-19-17-15-
G)---------------------------------------------------
D)---------------------------------------------------
A)---------------------------------------------------
E)---------------------------------------------------
(continuacion de arriba)
e)-14-14-15-14-15-12--12-12-12-10-8---7-
B)-15-15-17-15-17-13--13-13-13--12-10-8-
G)--------------------------------------
D)--------------------------------------
A)--------------------------------------
E)--------------------------------------

G          D7           G
Quiero que duermas conmigo
                  D7
solo esta noche nomas
                     G
si no qieres no te obligo,pero piensa
         D7                         G
en lo bonito que a de ser juntos estar

G          D7           G
quiero que duermas conmigo
                        D7
centro los dos piel con piel
                      G
que mi pecho sea tu nido
                       D7
que lo que no has conocido del amor
          G
vas aprender

                D7
porque ya te traigo unas ganas inmensas
              C   D7           G
a mi no me creas,ven toca mi piel
                D7
cierra tuus ojitoos y vuela conmigo
                   C    D7       G
mi pecho es tu abrigo y te cobijare

G             D7        G    G7
quiero que duermas desnuda,qe voy
             C
hacerte el amor
        D7            G
hoy el tiempo no me apura voy amarte
        D7                   G
sin censura,solo acepta porfavor

----Requinto (el mismo del intro)----

               D7
porque ya te traigo unas ganas inmensas
             C    D7           G
a mi no me creas,ven toca mi piel
              D7
cierra tuus ojitos y vuela conmigo
                 C      D7       G
mi pecho es tu abrigo y te cobijare
G            D7        G    G7
quiero que duermas desnuda,qe voy
            C
hacerte el amor
         D7            G
hoy el tiempo no me apura voy amarte
       D7                    G
sin censura,solo acepta porfavor

Aqi lo original es un redoblete con los mismos acordes,
o si lo quieren hacer de esta manera.
                          D7 D7 G
e)-2-2-0------------------------3------------------
B)-3-3-1-3-3-3-1-1-1-0----3--3--3------------------
G)-------4-4-4-2-2-2-0----5--5--4------------------
D)------------------------4--4--5------------------
A)------------------------5--5--5------------------
E)------------------------------3------------------


Los acordes a usar para esta cancion son los siguientes:
D7:
E)-0
B)-3
G)-5
D)-4
A)-5
E)-0

G:
E)-3
B)-3
G)-4
D)-5
A)-5
E)-3

C:
E)-5
B)-5
G)-5
D)-5
A)-x
E)-x

y este es el arreglo para entrar a D7, lo usa en casi toda la cancion.
        D7
e)----------
B)----------
G)----------
D)----------
A)---3-4-5--
E)--5-------


Esta cancion va dedicada para Ruby,, la persona que me inspira
en todo y que mas amo en este mundoo...
Suggest correction
Creating personal tab
Creating personal tab
You can edit any tab online and save it as your Personal.

You can edit, replace or remove any tab part or add personal notes – all changes will be seen only by you.

Personal tabs can be accessed anytime from any device, even offline.
Learn more »
Give kudos to tab author, rate the tab!
1 2 3 4 5
comments
print report bad tab
guest
Wanna post a correction for this tab? Suggest correction