Oops, an error
Loading. Please wait.

Se Vale tab

20 views 1 this week
no commentswrite comment
1 2 3 4 5
3 more votes to show rating
add to favorites
×
Save as Personal and add changes to this tab that will be seen only by you. Learn more ›
×
You can save this tab as Personal to edit and correct it or add notes. All changes will be seen only by you. Learn more »
launch autoscroll
font size
0
reset
how to read this tab
guitar tuner
edit
Autoscroll
slow
fast
+/-
esc
set tempo
stop
ACORDES: C G Am Em F D E7 G# B


INTRO REKINTO

e-|--3-3/15-15-15-15-15-15-15-15
B-|-----------------------------
G-|-----------------------------
D-|-----------------------------
A-|-----------------------------
E-|-----------------------------


INTRO ARPEGIO: C G Am Em F C D G

** SI LA TOCAN A DOS GUITARRAS, UNA GUITARRA
ARPEGEA LOS TONOS COMPLETOS, Y LA OTRA TOCA ESTE
ARPEGIO

     C              G         Am         Em            F

e|----------  e|--------  e|-------  e|-------  e|--------
B|---1---1--  B|---1--1-  B|--1--1-  B|--1--1-  B|--1--1--
G|-----4----  G|-0--4---  G|---4---  G|---4---  G|---4----
D|----------  D|--------  D|-------  D|-2-----  D|-3------
A|-3--------  A|--------  A|-0-----  A|-------  A|--------
E|----------  E|--------  E|-------  E|-------  E|--------


LA SEXTA VES CAMBIA UN POCO, Y ES PARA CAER A G
RASGUENADO COMPLETO EL TONO

        G          G     (RASGUEO COMPLETO GUITARRA
e|-------------- --3--   QUE ARPEGEA TONOS COMPLETOS)
B|---1-1/3-1---- --3--
G|-0---------2/4 -----
D|-------------- -----
A|-------------- --2--
E|-------------- --3--


( EL ARPEGIO VA EN ESTA PARTE)

C                              G
Se vale extrañarte, bien lo enTiendo yo

Am                              Em
puedo cambiar la historia, fantasear mi amor

F                           G
total yo soy el dueño de tantos recuerdos...


(SE VUELVE A REPETIR EL ARPEGIO DE ARRIBA)


C                           G
Se vale ocultar que el terminar dolio

    Am                    Em
ser tu mejor amigo y escuchar tu voz

F                           G
sentir yo tu mejilla cuando te salude


(RASGUEO COMPLETO)

Am     Em
Si, yo se

       F                C
no es bueno vivir en quimeras

     F                  C           G    G G#
no ayuda a sanar las heridas que dejo...


Am       Em
Se, también

      F                C
que aparte no será lo mismo

    F                     C            G
no volverá aunque sea su amigo, se acabo...


[Coro]


  C                   E7           Am
[ Pero ya no puedo hechar tantos recuerdos

     Em
al olvido

        F             C
fueron parte de algo bello,

        F                D           G
de ese mundo al que nos conduce el amor...


C                            E7        Am
Y su escencia es la que hoy ronda y maravilla

       Em
mis sentidos

         F            C
dejo al tiempo mi destino,

          F          G          C
mientras tanto se vale ser soñador... ]


PUENTE: C E7 Am Em F D F G C  C B

REKINTO:

e-|---------------------------------------
B-|---5-5-5-5-5-1-5/6-5-3-1-5/6-5-3-5-1---
G-|-------------------------------------0-
D-|---------------------------------------
A-|---------------------------------------
E-|---------------------------------------

e-|---3-3-13-12-10-8-8-5--
B-|-------------------------
G-|-------------------------
D-|-------------------------
A-|-------------------------
E-|-------------------------

e-|---5-5-13-12-10-8-----
B-|------------------------
G-|------------------------
D-|------------------------
A-|------------------------
E-|------------------------

e-|-----------------------
B-|-----5/6-5-3-1/3-1----- ---> aki se kae a C
G-|-----------------------
D-|-----------------------  se da raegueo completo
A-|-----------------------
E-|-----------------------         C B Am


(ARPEGIADO) (UNA GUITARRA ARPEGIA EL TONO COMLPLETO
Y LA OTRA GUITARRA ESTE ARPEGIO, SOLO ESTA ESTROFA)

     Am             Em        F          C            F         G

e|--------  e|--------  e|-------  e|-------  e|--------  e|--------------
B|---1---1  B|---1--1-  B|--1--1-  B|--1--1-  B|--1--1--  B|---1-1/3-1----
G|-----4--  G|---4----  G|---4---  G|---4---  G|---4----  G|-0---------2/4
D|--------  D|-2------  D|-3-----  D|-------  D|-3------  D|--------------
A|-0------  A|--------  A|-------  A|-3-----  A|--------  A|--------------
E|--------  E|--------  E|-------  E|-------  E|--------  E|--------------


Am                        Em
Se vale contarle todo a nuestra estrella

   F                          C
cantar esa canción que le gustaba a ella

   F                             G          G G#
seguir con mis detalles aunke estes ausente...


(RASGUEO COMPLETO)

Am      Em
Si, yo Sé

      F                C
que aparte no será lo mismo

    F                     C            G
no volverá aunque sea su amigo, se acabo...


[Coro]


  C                   E7           Am
[ Pero ya no puedo hechar tantos recuerdos

     Em
al olvido

        F             C
fueron parte de algo bello,

        F                D           G
de ese mundo al que nos conduce el amor...


C                            E7        Am
Y su escencia es la que hoy ronda y maravilla

       Em
mis sentidos

         F            C
dejo al tiempo mi destino,

          F          G          C
mientras tanto se vale ser soñador... ]


(ARPEGIADO)


C                              G
Se vale extrañarte, bien lo enTiendo yo

Am                              Em
puedo cambiar la historia, fantasear mi amor

F                           G
total yo soy el dueño de tantos recuerdos...


-----------------------------------------------

EL TONO E7 PONGALO ASEE

 -------------- E7 ------------------

  9   8   7   6   5   4   3   2   1  /
|---|---|---|---|---|---|---|---|---|E
|---|---|---|---|---|---|---|-O-|---|A
|---|---|---|---|---|---|---|---|---|D
|---|---|---|---|---|---|---|---|-O-|G
|---|---|---|---|---|---|-O-|---|---|B
|---|---|---|---|---|---|---|---|---|e


STA PRO LA ROLITAA, AI KEDO...

DIOS LOS BENDIGA!!

            
            
Suggest correction
Creating personal tab
Creating personal tab
You can edit any tab online and save it as your Personal.

You can edit, replace or remove any tab part or add personal notes – all changes will be seen only by you.

Personal tabs can be accessed anytime from any device, even offline.
Learn more »
Give kudos to tab author, rate the tab!
1 2 3 4 5
comments
print report bad tab
guest
Wanna post a correction for this tab? Suggest correction