Oops, an error
Loading. Please wait.

Te Amo tab

49 views 1 this week
no commentswrite comment
1 2 3 4 5
3 more votes to show rating
add to favorites
×
Save as Personal and add changes to this tab that will be seen only by you. Learn more ›
×
You can save this tab as Personal to edit and correct it or add notes. All changes will be seen only by you. Learn more »
launch autoscroll
font size
0
reset
how to read this tab
guitar tuner
edit
Autoscroll
slow
fast
+/-
esc
set tempo
stop
Bueno, esta es mi segunda rola que mando de los nietos,
espero ke les guste, ya que la otra version
(de esta canción que envió Fernando Leon) tiene pokitos
errores:

La cancion es sin 'capo'

la rola empieza con un arpegio en Do:

e|--------------------------------------
B|---------1---------------1------------
G|-----0-------0-------0-------0--------
D|---2---2---2-------2---2---2----------
A|-3---------------3--------------------
E|--------------------------------------

  Despues de lo de arriva, entra la cancion
 con arpegios iguales(misma secuencia de las cuerdas),
 solo que ahora con las 3 primeras cuerdas,
 con los tonos que voy a poner
     Dm
e|---------1---------------------------
B|-----3-------3-----------------------
G|---2---2---2---2---------------------
D|-0-----------------------------------
A|-------------------------------------
E|-------------------------------------


Dm                 G
Ay si nos hubiera visto
Dm             G                F  Am
Estábamos ahí sentados frente a frente
Em        Am
No podía faltarnos la luna

-- akí lleva esto:
          LAm
e|---------0-------------------------
B|---------1-------------------------
G|-----2---2-------------------------
D|---2-----2-------------------------
A|-0-------0-------------------------
E|-----------------------------------


  Dm                    G
Y hablábamos de todo un poco
  Dm                   G                F Am
Y todo nos causaba risa como dos tontos
  Em                 Am
Y yo que no veía la hora

-- akí lleva esto de nuevo, pero ahora 2 veces:
          LAm        LAm
e|---------0----------0--------------
B|---------1----------1--------------
G|-----2---2-------2--2--------------
D|---2-----2-----2----2--------------
A|-0-------0---0------0--------------
E|-----------------------------------

     G
De tenerte en brazos y poderte decir:

*Coro:
   C               F                     C
Te amo desde el primer momento en que te vi
         F                Dm               G
Y hace tiempo te buscaba, ya te imaginaba así
   C              F                 C
Te amo, aunque no es tan fácil de decir
    F                  Dm               G
Y defino lo que siento con estas palabras :
  C       F
Te amo, uhuh, te amo.

e|--8-8-8-8-8-8/10--7-7---5-3-1-1-0-0---
B|--------------------------------------
G|--------------------------------------
D|--------------------------------------
A|--------------------------------------
E|--------------------------------------


 Dm                       G
Y de pronto nos rodeo el silencio
 Dm           G           F    Am
Y nos miramos fijamente uno al otro
 Em                Am
Tus manos entre las mías

-- akí lleva esto:
          LAm
e|---------0-------------------------
B|---------1-------------------------
G|-----2---2-------------------------
D|---2-----2-------------------------
A|-0-------0-------------------------
E|-----------------------------------

 Dm                       G
Tal vez nos volveríamos a ver,
 Dm             G
Mañana no se si podré
 F       Am
estas jugando
  Em                       Am
 Me muero si no te vuelvo a ver
    G
Y tener en brazos y poderte decir :

-CORO-

Espero que les haya gustado, cualkier kosa ahí sta mi mail.
        mingo_garcia@

            
            
Suggest correction
Creating personal tab
Creating personal tab
You can edit any tab online and save it as your Personal.

You can edit, replace or remove any tab part or add personal notes – all changes will be seen only by you.

Personal tabs can be accessed anytime from any device, even offline.
Learn more »
Give kudos to tab author, rate the tab!
1 2 3 4 5
comments
print report bad tab
guest
Wanna post a correction for this tab? Suggest correction