Oops, an error
Loading. Please wait.

Ya Ves tab

25 views 1 this week
no commentswrite comment
1 2 3 4 5
3 more votes to show rating
add to favorites
×
Save as Personal and add changes to this tab that will be seen only by you. Learn more ›
×
You can save this tab as Personal to edit and correct it or add notes. All changes will be seen only by you. Learn more »
launch autoscroll
font size
0
reset
how to read this tab
guitar tuner
edit
Autoscroll
slow
fast
+/-
esc
set tempo
stop
q onda no ps ay les va una rolilla con intros y arreglos

intro arpegiado


  G     Bm       C        D
E-1----------------------------------
A--------2-------3-------------------
D-------------------------0----------
g--0-0----4-4-----0-0--0---2-2-------
b---3--3---3-------1--1-----3--------
e-----3------2-2-----0---0----3-2-0-2


G
Ya vez
      Bm          Em(b1)G7
no he podido olvidarte
C          MI         Am
ya vez no pude avandonarte
D                      G      F      E
me pierdo un dia de tu vida y no soy fuerte
   LAm     D          G
ya vez me muero por tenerte


G
Ya vez
SIm                Em(b1)G7
aqui vengo a buscarte
C           MI          Am
ya vez no quieres escucharme
D7                   G       F       E
mas yo veo en tu mirada hay tanto amor
   LAm     D          G
ya vez regresa por favor

despues d esta estrofa c tok la entrada al coro q es la sig...

 g-2----------
b--0-1-3-3---
e-------0-0-2

            G             G7         C
Es que lo nuestro no se puede terminar
           D7                        G   (B2)
tu y yo nacimos para amarnos eternamente
        E                        LAm
y no podemos ir en contra del destino
          D                       G
es el destino que nos ha mandado dios
   SIm
ya vez
   LAm
ya vez...

(las notas anteriores c tokn=
q en el introempezando x el G )

SOLO D LA GUTARRA

g-2---------------------------------------------------------
b--0-1-3-3---------------3-3--3-1----3-----------3-3-3-3-1-0
e-------0-0-2-3-2-3-2-3-2----0--------0-2-0-2-3-2---0-0-----

g--------------------------------------------------
b-------10--------------------------------------10-
e-7-10-7--7-8-10-12-10-12-10-12-7-7-7-10-8-7-8-7---

g-------------------------
b----------------------10-
e-10-10-10-10-7-7-8-8-7---

al terminar esto sigue el intro y otra ves el coro


            G
Es que lo nuestro no se...

(B2)
b-------10----------
e-7-10-7--7-8-10-12-

(B1)
D--3-
g-0--

AQUI LES DEJO LA ROLA
Y PS ESPERO QLES GUSTE

no ps ay les dejo la rola y ps sbss
y salu2 a la banda the noise y DA-MAN
d san nicolas de los garza nuevo leon

            
            
Suggest correction
Creating personal tab
Creating personal tab
You can edit any tab online and save it as your Personal.

You can edit, replace or remove any tab part or add personal notes – all changes will be seen only by you.

Personal tabs can be accessed anytime from any device, even offline.
Learn more »
Give kudos to tab author, rate the tab!
1 2 3 4 5
comments
print report bad tab
guest
Wanna post a correction for this tab? Suggest correction