Oops, an error
Loading. Please wait.

Aroma Del Camino tab

version 2
version 2

Whole song

29 views 1 this week
no commentswrite comment
1 2 3 4 5
3 more votes to show rating
add to favorites
×
Save as Personal and add changes to this tab that will be seen only by you. Learn more ›
×
You can save this tab as Personal to edit and correct it or add notes. All changes will be seen only by you. Learn more »
launch autoscroll
font size
0
reset
how to read this tab
guitar tuner
edit
Autoscroll
slow
fast
+/-
esc
set tempo
stop
Hola soy Franco y aquí les va la canción
con la introducción. Esta se puede ejecutar
con el violin y la guitarra.
Bueno ojala les sea útil. Saludos a todos.


INTRO  RE - SOL - LA - RE X 2

Violín:

-2--2-2-2-2-2-0---------------------2-----1ra |
----------------3-2-0------0-3-2------3---    | X 2
----------------------0--0-------2--------3ra |

-2--2-2-2-2-2-0---------------------2-0----1ra |
----------------3-2-0------0-3-2-------3---    | X 2
----------------------0--0-------2--------3ra |

      RE                   SOL
Llega con el viento un frescor de limas
        LA         RE                 LA     RE
y en el trópico me vuelvo lapacho por tu resina.

Violín:

2--0--2--3--5--2--0--2--3--5-3-2-0-----1ra |
-----------------------------------3---    | X 2
---------------------------------------3ra |

GUITARRA: punteo y acordes: Re - La - Sol - Re x2

-2--2-2-2-2-2-0---------------------2-----1ra |
----------------3-2-0------0-3-2------3---    | X 2
----------------------0--0-------2--------3ra |

-2--2-2-2-2-2-0---------------------2-0----1ra |
----------------3-2-0------0-3-2-------3---    | X 2
----------------------0--0-------2--------3ra |


Mezcla de salares y algodón de nubes
son olores ancestrales que en las piedras se descubren.

INTRO  RE - SOL - LA - RE X 2

Violín:

-2--2-2-2-2-2-0---------------------2-----1ra |
----------------3-2-0------0-3-2------3---    | X 2
----------------------0--0-------2--------3ra |

-2--2-2-2-2-2-0---------------------2-0----1ra |
----------------3-2-0------0-3-2-------3---    | X 2
----------------------0--0-------2--------3ra |

Huele azufre el aire -cosas de febrero-
y en la esencia de la albahaca mi amor, por tu amor yo muero.

        RE                  SOL
Son mis sueños redes de atrapar olores
     LA            RE                SOL  LA   RE
deshilados con mis manos tejidos con tus amo---res.


INTRO  RE - SOL - LA - RE X 2

Violín:

-2--2-2-2-2-2-0---------------------2-----1ra |
----------------3-2-0------0-3-2------3---    | X 2
----------------------0--0-------2--------3ra |

-2--2-2-2-2-2-0---------------------2-0----1ra |
----------------3-2-0------0-3-2-------3---    | X 2
----------------------0--0-------2--------3ra |

Huelo en vos el tiempo que me llena el alma
cuando brota de tus ojo olor de tierra mojada.

Violín:

2--0--2--3--5--2--0--2--3--5-3-2-0-----1ra |
-----------------------------------3---    | X 2
---------------------------------------3ra |

GUITARRA: punteo y acordes: Re - La - Sol - Re x2

-2--2-2-2-2-2-0---------------------2-----1ra |
----------------3-2-0------0-3-2------3---    | X 2
----------------------0--0-------2--------3ra |

-2--2-2-2-2-2-0---------------------2-0----1ra |
----------------3-2-0------0-3-2-------3---    | X 2
----------------------0--0-------2--------3ra |


Pan de mi esperanza huelo por tu espiga
me emborracho por tus valles con perfume de tus viñas.

INTRO  RE - SOL - LA - RE X 2

Violín:

-2--2-2-2-2-2-0---------------------2-----1ra |
----------------3-2-0------0-3-2------3---    | X 2
----------------------0--0-------2--------3ra |

-2--2-2-2-2-2-0---------------------2-0----1ra |
----------------3-2-0------0-3-2-------3---    | X 2
----------------------0--0-------2--------3ra |


Respiré el misterio de tus tabacales
y al llegar por tu cintura dulzor de cañaverales.

      RE                  SOL
Son mis sueños redes de atrapar olores
     LA            RE                SOL  LA   RE
deshilados con mis manos tejidos con tus amo---res.

            
            
Suggest correction
Creating personal tab
Creating personal tab
You can edit any tab online and save it as your Personal.

You can edit, replace or remove any tab part or add personal notes – all changes will be seen only by you.

Personal tabs can be accessed anytime from any device, even offline.
Learn more »
Give kudos to tab author, rate the tab!
1 2 3 4 5
comments
print report bad tab
guest
Wanna post a correction for this tab? Suggest correction