Oops, an error
Loading. Please wait.

Dale Negrita tab

20 views 1 this week
no commentswrite comment
1 2 3 4 5
3 more votes to show rating
add to favorites
×
Save as Personal and add changes to this tab that will be seen only by you. Learn more ›
×
You can save this tab as Personal to edit and correct it or add notes. All changes will be seen only by you. Learn more »
launch autoscroll
font size
0
reset
how to read this tab
guitar tuner
edit
Autoscroll
slow
fast
+/-
esc
set tempo
stop
INTRO:
                              Bb
e|----11----15-11-------11-15-11-11-|
b|-15----15-------15-15-------------|
g|----------------------------------|
D|----------------------------------|
A|----------------------------------|
E|----------------------------------|

            C                  F
e|----11----15-11-------11----------|
b|-15----15-------15-15----15-13-13-|
g|----------------------------------|
D|----------------------------------|
A|----------------------------------|
E|----------------------------------|

            G                 F
e|---------------------------------|
b|------------------------15-13-13-|
g|------12-14p12----14p12----------|
D|-15-15---------15----------------|
A|---------------------------------|
E|---------------------------------|

           A7             Dm
e|---------------------------|
b|---------------------------|
g|-------9-11p9----11p9------|
D|-12-12--------12------12-9-|
A|---------------------------|
E|---------------------------|

Estrofa:

                 Bb
Permiso quiero pasar
          C         F
pero sin pedir permiso
             G         F
voy buscando en tu jardin
          A7      Dm
buena suerte para mi.

                    Bb
quizas cambie mi destino
          C        F
por el tuyo para bien
         G           F
te cantare mis canciones
       A7         Dm
asi podras entender.

C                    F
Puñado de años he pasado
     A7             Dm
esperando a que salieras
C                 F
si esto raya la locura
            A7       Dm
culpable es tu corazon.

Estribillo:

                       Bb
Dale negrita anda abriendo
         C         F
dale que no espero mas
           G         F
que estoy todo enamorado
       A7      Dm
abri dejame pasar. X2


INTRO:

Creo que abriste la puerta
veo que alli te asomaste
divisaste que era yo
y sin querer la cerraste.

Fue de esos vientos norteños
de esos que hay en la ciudad
no me preocupo aqui espero
que seguro ya abira.

Guardo el olor de tu piel
fresca pura inolvidable
bailando el vals de tus quince
fue que empece a enamorarme.

Estribillo:

Dale negrita anda abriendo
dale que no espero mas
que estoy todo enamorado
abri dejame pasar.
Suggest correction
Creating personal tab
Creating personal tab
You can edit any tab online and save it as your Personal.

You can edit, replace or remove any tab part or add personal notes – all changes will be seen only by you.

Personal tabs can be accessed anytime from any device, even offline.
Learn more »
Give kudos to tab author, rate the tab!
1 2 3 4 5
comments
print report bad tab
guest
Wanna post a correction for this tab? Suggest correction