Oops, an error
Loading. Please wait.

Entre La Tierra Y El Cielo tab

version 2
version 2

Whole song

63 views 1 this week
no commentswrite comment
1 2 3 4 5
3 more votes to show rating
add to favorites
×
Save as Personal and add changes to this tab that will be seen only by you. Learn more ›
×
You can save this tab as Personal to edit and correct it or add notes. All changes will be seen only by you. Learn more »
launch autoscroll
font size
0
reset
how to read this tab
guitar tuner
edit
Autoscroll
slow
fast
+/-
esc
set tempo
stop
Holas!.. este solo nose si estara mejor ke el otro!..
pero es mas facil de tocar... muchisimo mas facil ..y sinceramente..
suena mejor!! sino fijensen.. token el otro y despues este..!..
uds veran con cual se kedan.. no pierden nada en aprenderlo..
son muy similares.. para mi.. suena perfecto este..
spero ke lo disfruten!!
Aguyante tucuman!!.. un saludo pa todos los wachos del mocho! ejee!! cya!

Solo

1|---------------8-10----8-8-7-----------12-12-12----------
2|-------9-10-12----------------10~~--10-------------------
3|--9-11------------------------------------------10~~-----
4|---------------------------------------------------------
5|---------------------------------------------------------
6|---------------------------------------------------------

1|--------12-12-12---10-10-8-7--7-8-10------
2|-------------------------------------8~~--
3|---10-------------------------------------
4|------------------------------------------
5|------------------------------------------
6|------------------------------------------

1|----8------------------------------------------------------
2|-10---11--10-10-8------------8-10--------------------------
3|------------------9~~--9-10-----------------------9-12-10~~
4|----------------------------------10~~----9-10-12----------
5|---------------------------------------12------------------
6|-----------------------------------------------------------


1|-------------------------12-13-12--
2|-----------------------------------
3|---10-10-9-------------9~----------
4|-----------12--9-10-12-------------
5|-----------------------------------
6|-----------------------------------

            
            
Suggest correction
Creating personal tab
Creating personal tab
You can edit any tab online and save it as your Personal.

You can edit, replace or remove any tab part or add personal notes – all changes will be seen only by you.

Personal tabs can be accessed anytime from any device, even offline.
Learn more »
Give kudos to tab author, rate the tab!
1 2 3 4 5
comments
print report bad tab
guest
Wanna post a correction for this tab? Suggest correction