Oops, an error
Loading. Please wait.

Entre La Tierra Y El Cielo tab

version 3
version 3

Whole song

85 views 1 this week
no commentswrite comment
1 2 3 4 5
3 more votes to show rating
add to favorites
×
Save as Personal and add changes to this tab that will be seen only by you. Learn more ›
×
You can save this tab as Personal to edit and correct it or add notes. All changes will be seen only by you. Learn more »
launch autoscroll
font size
0
reset
how to read this tab
guitar tuner
edit
Autoscroll
slow
fast
+/-
esc
set tempo
stop
Me levanté con ganas de tocar Los Nocheros
Cualquier cosita, mail: deciimenickito@


PASO 1:


  Yo siento que me provocas,

1---------------------------------
2--------0--1--0-----3------------
3-----2-----------2---------------
4--2--------------------3---------
5---------------------------------
6---------------------------------

 aunque no quieras hacerlo.´

1---------------------------------
2-----------0--1-----0------------
3-----1--2--------0-----2---------
4--2------------------------------
5---------------------------------
6---------------------------------


  Está grabado en tu boca,


1---------------------------------
2--------0--1--0------------------
3-----2-----------2--0------------
4--2--------------------3---------
5---------------------------------
6---------------------------------


al rojo vivo el deseo.

1---------------------------------
2-----------0--1-----0------------
3-----1--2--------0-----2---------
4--2------------------------------
5---------------------------------
6---------------------------------


  Y casi puedo tocarte,

1-----------0--------0------------
2-----1--3-----3--1-----3---------
3--0------------------------------
4---------------------------------
5---------------------------------
6---------------------------------

como una fruta madura,

1--------0--1--0-----1--0---------
2-----3-----------3---------------
3--0------------------------------
4---------------------------------
5---------------------------------
6---------------------------------


  presiento que voy a amarte,

1--0--0---------------------------
2--------3--1--0--1--3------------
3-----------------------0---------
4---------------------------------
5---------------------------------
6---------------------------------

 más allá de la locura.
1---------------------------------
2--1--1--1--1--0-----1--0---------
3-----------------2---------------
4---------------------------------
5---------------------------------
6---------------------------------


Estribillo:


  VOY A COMERTE EL CORAZÓN A BESOS,
(ESTRIBILLO)
1--0--0--0--0---------------------
2--------------3--3--1--1--0--0---
3--------------------------------2
4---------------------------------
5---------------------------------
6---------------------------------

 A RECORRER SIN LÍMITES TU CUERPO,

1--1--1--1--1--0--0-----------0---
2--------------------3--3--0-----3
3---------------------------------
4---------------------------------
5---------------------------------
6---------------------------------


  Y POR EL SUELO NUESTRA ROPA

1--1--1--1--1--0--0---------------
2--------------------3--1--0------
3---------------------------------
4---------------------------------
5---------------------------------
6---------------------------------


, SUAVE, GOTA A GOTA,


1--1--0--0------------------------
2----------3--1--0----------------
3---------------------------------
4---------------------------------
5---------------------------------
6---------------------------------


 VOY A EMBORRACHARTE DE PASIÓN.


1--0--1--0--1--0--0-----0--1--0---
2--------------------3------------
3---------------------------------
4---------------------------------
5---------------------------------
6---------------------------------


 [Lo mismo]

 VOY A COMERTE EL CORAZÓN A BESOS,
 A RECORRER SIN LÍMITES TU CUERPO,

 VOY A DEJAR POR TUS RINCONES PÁJAROS Y FLORES,
 COMO UNA SEMILLA DE PASIÓN.

[SOLO ACÚSTICO]


E|---------------7--8--8--7--------------12--12----------------
B|-----7--9--10--------------10--10--10------------------------
G|--9--------------------------------------------10--10--------
D|-------------------------------------------------------------
A|-------------------------------------------------------------
E|-------------------------------------------------------------

E|------12--12--12--10--10--8--7--7--8--10---------------------
B|------------------------------------------8------------------
G|--10---------------------------------------------------------
D|-------------------------------------------------------------
A|-------------------------------------------------------------
E|-------------------------------------------------------------

E|-----5--8--6--5--------------------5-------------------------
B|--8--------------8--6--5--5--6--8----------------------------
G|--------------------------------------5--5-------------------
D|-------------------------------------------------------------
A|-------------------------------------------------------------
E|-------------------------------------------------------------

E|--------------------------------------------12--13--12-------
B|--------5--6--8--6--5--------------------5-------------------
G|--5--7-----------------7--5--4--4--5--7----------------------
D|-------------------------------------------------------------
A|-------------------------------------------------------------
E|-------------------------------------------------------------


[Repetir paso 1]

Ahora te sueltas el pelo, y así descalza caminas,
voy a morder el anzuelo, pues quiero lo que imaginas.
Cuando se cae tu vestido como una flor por el suelo,
no existe nada prohibido entre la tierra y el cielo.


Estribillo:
VOY A COMERTE...


[Sube 1 tono la parte final]


Am      Cm
  De pasión...

          Cm
  VOY A COMERTE EL CORAZÓN A BESOS,
     Fm
 A RECORRER SIN LÍMITES TU CUERPO,
            Bb
Y POR EL SUELO NUESTRA ROPA, SUAVE, GOTA A GOTA,

 Eb                       G7
VOY A EMBORRACHARTE DE PASIÓN.
        Cm
VOY A COMERTE EL CORAZÓN A BESOS,
     Fm
 A RECORRER SIN LÍMITES TU CUERPO,
           Bb
  VOY A DEJAR POR TUS RINCONES PÁJAROS Y FLORES,
Eb                      G7
COMO UNA SEMILLA DE PASIÓN.
Suggest correction
Creating personal tab
Creating personal tab
You can edit any tab online and save it as your Personal.

You can edit, replace or remove any tab part or add personal notes – all changes will be seen only by you.

Personal tabs can be accessed anytime from any device, even offline.
Learn more »
Give kudos to tab author, rate the tab!
1 2 3 4 5
comments
print report bad tab
guest
Wanna post a correction for this tab? Suggest correction