Oops, an error
Loading. Please wait.

Guitarra De Medianoche tab

17 views 1 this week
no commentswrite comment
1 2 3 4 5
3 more votes to show rating
add to favorites
×
Save as Personal and add changes to this tab that will be seen only by you. Learn more ›
×
You can save this tab as Personal to edit and correct it or add notes. All changes will be seen only by you. Learn more »
launch autoscroll
font size
0
reset
how to read this tab
guitar tuner
edit
Autoscroll
slow
fast
+/-
esc
set tempo
stop
    

intro

E||----------------------------------------------------|
B||----------------------------------------------------|
G||-------------------------------2--------------------|
D||----------------------------------5--4--------------|
A||-----------2--4--5-----4--2-4-----------5--4--2--4--|
E||--3--5--6-------------------------------------------|


                                                       
-----------------------10----------8--7--6--7---------|
--------------------------------7--------------3/5--5-|
--2--------8--7--6--7--------7--------7--6--7---------|
-----5--4---------------------------------------------|
------------------------------------------------------|
------------------------------------------------------|


                                                                   
---------0--1--3--5--5/7--------7-----6-----5---4------3-2----------------2---3-||
0--1--3------------------8------------------------------------------------1---3-||
----------------------------5/7-----6-----5-----4----3------2---4----2----2---3-||
-------------------------------------------------------------------4---5--0---5-||
------------------------------------------------------------------------------5-||
------------------------------------------------------------------------------3-||


SOLm RE7    DOm          SOLm
Sol, mar, guitarra de medianoche
       RE7                 SOLm
yo y tú, hermana de mi esperanza
       RE7                  SOLm
yo  y   tú, hermana de mi esperanza

(los mismo que la estrofa anterior)
Oh, oh, oh, por algo soy caminante
cantor de un tiempo de madrugadas
cantor de un tiempo de madrugadas 
SOL7 DOm  RE7            SIb      
   Andaré  andaré en la huella
DOm               SOLm  
  siguiendo una estrella
DOm                   SOLm             RE7             SOLm   
que aunque esté muy alta yo sé que un día la he de alcanzar..
DOm                   SOLm             RE7             SOLm
que aunque esté muy alta yo sé que un día la de he de alcanzar!

* repite intro y el resto es todo igual

Saludos a todos los amantes de la buena música
Suggest correction
Creating personal tab
Creating personal tab
You can edit any tab online and save it as your Personal.

You can edit, replace or remove any tab part or add personal notes – all changes will be seen only by you.

Personal tabs can be accessed anytime from any device, even offline.
Learn more »
Give kudos to tab author, rate the tab!
1 2 3 4 5
comments
print report bad tab
guest
Wanna post a correction for this tab? Suggest correction