Oops, an error
Loading. Please wait.

Jamas tab

version 2
version 2

Whole song

15 views 1 this week
no commentswrite comment
1 2 3 4 5
3 more votes to show rating
add to favorites
×
Save as Personal and add changes to this tab that will be seen only by you. Learn more ›
×
You can save this tab as Personal to edit and correct it or add notes. All changes will be seen only by you. Learn more »
launch autoscroll
font size
0
reset
how to read this tab
guitar tuner
edit
Autoscroll
slow
fast
+/-
esc
set tempo
stop
Esta es una pequeña modificacion a una transcripcion que
vi publicada en donde marco un poco mejor algunos arreglos
y arrastres, tal cual lo hace el gordo en el tema original.


e ------------7-------5---3-----------------------
b - 0-0-0-0-0---0-0-0---0---0-0-0-0-0----7--------
g --------------------------------------------9-7-
d ------------5-------4---2-----------------------
a ------------------------------------2s5---------
e -----------------------------------------7s9-7--

a -------------6--9-8-7------------------
b -7-8-7h8-6-7----------8-7-5-5h6-3-2-3--
g ---------------9-8--7-9-7-6-6---4-3-4--
d ---------------------------------------
a ---------------------------------------
e ---------------------------------------


e ------------7-------5---3-----------14-------12---10-----
b - 0-0-0-0-0---0-0-0---0---0-0-0-0-0----0-0-0----0----0-0-
g ---------------------------------------------------------
d ------------5-------4---2-----------12-------11---9------
a ---------------------------------------------------------
e ---------------------------------------------------------

a -------------9-9-7-6-7-9-6-7-7-7-9-6--------7--
b -7-8-7h8-6-7---------------------------7---7---
g --------------9-7--6-7-9-6-7-7-7-9-6-6----7----
d -----------------------------------------------
a -----------------------------------------9-----
e -----------------------------------------------
Suggest correction
Creating personal tab
Creating personal tab
You can edit any tab online and save it as your Personal.

You can edit, replace or remove any tab part or add personal notes – all changes will be seen only by you.

Personal tabs can be accessed anytime from any device, even offline.
Learn more »
Give kudos to tab author, rate the tab!
1 2 3 4 5
comments
print report bad tab
guest
Wanna post a correction for this tab? Suggest correction