Oops, an error
Loading. Please wait.

La Mitad tab

28 views 1 this week
no commentswrite comment
1 2 3 4 5
3 more votes to show rating
add to favorites
×
Save as Personal and add changes to this tab that will be seen only by you. Learn more ›
×
You can save this tab as Personal to edit and correct it or add notes. All changes will be seen only by you. Learn more »
launch autoscroll
font size
0
reset
how to read this tab
guitar tuner
edit
Autoscroll
slow
fast
+/-
esc
set tempo
stop
INTRO:

   G              C
e|----------------------------|
b|-------10-12-10----13-12-10-|
g|-12-12----------12----------|
D|----------------------------|
A|----------------------------|
E|----------------------------|

   D           G
e|-10-10h12-10---|
b|-------------12-|
g|----------------|
D|----------------|
A|----------------|
E|----------------|


   G              C
e|----------------------------|
b|-------10-12-10----13-12-10-|
g|-12-12----------12----------|
D|----------------------------|
A|----------------------------|
E|----------------------------|

   D         G
e|---------------|
b|-------10------|
g|-12-11-----12--|
D|---------------|
A|---------------|
E|---------------|


G
Lejos de tu querer
C
tengo que confesar
D           G                   C         D
que yo soy apenas de lo que he sido la mitad


Vos me juraste ayer
que yo era tu verdad
y tu propia sombra para seguir tu caminar


C             D
Pobre mi corazón
C                  D
no hace mas que penar
C                  G               D             G
Cuando no estas conmigo suelo escucharlo a la mitad


G                             C
Dime quien pierde mas de los dos
                         G
si vos te vas de mi corazón
                              C
Dime quien pierde mas de los dos
                          G
o por igual perdemos los dos


G        D               C
Debes saber mujer si te vas
            D               G
a medias será si dejas mi amor
         D               C
solo podrás llevar la mitad
           D                G
la otra mitad la tiene mi amor

INTRO:

   G              C
e|----------------------------|
b|-------10-12-10----13-12-10-|
g|-12-12----------12----------|
D|----------------------------|
A|----------------------------|
E|----------------------------|

   D           G
e|-10-10h12-14-15--|
b|-----------------|
g|-----------------|
D|-----------------|
A|-----------------|
E|-----------------|


   G              C
e|----------------------------|
b|-------10-12-10----13-12-10-|
g|-12-12----------12----------|
D|----------------------------|
A|----------------------------|
E|----------------------------|

   D         G
e|---------------|
b|-------10------|
g|-12-11-----12--|
D|---------------|
A|---------------|
E|---------------|


IGUAL A LA PRIMER PARTE.

Mi suerte sin tu amor
no suele ser igual
y de poquito a poco como el carbón se apagará


Pobre mi corazón
no hace mas que penar
Cuando no estas conmigo suelo escucharlo a la mitad


Dime quien pierde mas de los dos
si vos te vas de mi corazón
Dime quien pierde mas de los dos
o por igual perdemos los dos


Debes saber mujer si te vas
a medias será si dejas mi amor
solo podrás llevar la mitad
la otra mitad la tiene mi amor

Solo podrás llevar la mitad
la otra mitad la tiene mi amor
Suggest correction
Creating personal tab
Creating personal tab
You can edit any tab online and save it as your Personal.

You can edit, replace or remove any tab part or add personal notes – all changes will be seen only by you.

Personal tabs can be accessed anytime from any device, even offline.
Learn more »
Give kudos to tab author, rate the tab!
1 2 3 4 5
comments
print report bad tab
guest
Wanna post a correction for this tab? Suggest correction