Oops, an error
Loading. Please wait.

Las Moras tab

25 views 1 this week
no commentswrite comment
1 2 3 4 5
3 more votes to show rating
add to favorites
×
Save as Personal and add changes to this tab that will be seen only by you. Learn more ›
×
You can save this tab as Personal to edit and correct it or add notes. All changes will be seen only by you. Learn more »
launch autoscroll
font size
0
reset
how to read this tab
guitar tuner
edit
Autoscroll
slow
fast
+/-
esc
set tempo
stop
INTRO Y SOLO*

        SIm                               FA#7
Boquita dulce como las moras tan solo hay dos 
                                          SIm
si una me engaña la otra me tiñe con su color 
         SIm                       MIm
Vives cautiva como la mora de su sabor 
             SIm             FA#7          SIm   MIm
blanca en la mano miel en la boca te tengo yo. 
             SIm             FA#7          SIm   
blanca en la mano miel en la boca te tengo yo. 

        FA#7            SIm
La mora blanca, la mora negra 
        LA7               RE
una me quiere, la otra me deja 
       MIm FA#7         SIm
pero ningu-na de mi se aleja 
         MIm            FA#7          SIm
y poco a poco me vuelvo loco de tanto amor. 

SOLO

La mora negra pinta y despinta mi tentación 
y no hallo nada con que borrarla del corazón 
Vives cautiva como la mora de su sabor 
blanca en la mano miel en la boca te tengo yo. 

La mora blanca, la mora negra... 

SOLO

La mora blanca no deja huella de su pasión 
y sin embargo llena de almíbar va mi ilusión 
Vives cautiva como la mora de su sabor 
blanca en la mano miel en la boca te tengo yo.

La mora blanca, la mora negra...


INTRO Y SOLO*    /\ = ligado


---2---2---2-|--------------------------------------------12-10/12\10---9-10--1ra
-------------|-----5--3--2-3----3-------2-0----0-2-3--------------------------
-------------|X4-------------4-4------------3-------------12-11---------9-11--
---------4---|----------------4--------2--0------2-4--------------------------
-2---4-------|----------------------------------------------------------------5ta


-------10---9--7--6---7--------1ra          
-12--12------------------7-----             
---11------9--7---6---7---7----             
---------------------------9---             
-------------------------------5ta     

_____________________________________________________________________________________

Dudas, sugerencias y comentarios fabian_0190@
Suggest correction
Creating personal tab
Creating personal tab
You can edit any tab online and save it as your Personal.

You can edit, replace or remove any tab part or add personal notes – all changes will be seen only by you.

Personal tabs can be accessed anytime from any device, even offline.
Learn more »
Give kudos to tab author, rate the tab!
1 2 3 4 5
comments
print report bad tab
guest
Wanna post a correction for this tab? Suggest correction