Oops, an error
Loading. Please wait.

Materia Pendiente chords

version 2
version 2

Whole song

31 views 1 this week
no commentswrite comment
1 2 3 4 5
3 more votes to show rating
add to favorites
×
Save as Personal and add changes to this tab that will be seen only by you. Learn more ›
×
You can save this tab as Personal to edit and correct it or add notes. All changes will be seen only by you. Learn more »
launch autoscroll
font size
0
reset
transpose
0
reset
simplify chords
display chords
guitar tuner
edit
Autoscroll
slow
fast
+/-
esc
set tempo
stop
Strumming
There is no strumming pattern for this song yet. and get +5 IQ
ESTA TAMBIEN ES FACIAL ASI QUE PONERLE GANAS 
ESTA ES UNA DE MIS PREFERIDAS Y ESTA COMPLETA CON TODOS LOS ARREGLOS


INTRO*  

SIKU*

Dm           Am         Gm
Este amor que nace al sol 
                       A7
trigal de ensueños que crece en mí  
Dm               Am           Gm
   como ese río muere en el mar  
                  A7
morir quisiera dentro de ti. 

Dm                   Am       Gm
   Sé que mi sombra reseca está  
                  A7
mojarla quiero en tu sudor  
Dm                 Am        Gm   
   sobre tu cuerpo ella estará  
                    A7
desnuda y frágil te besará. 

 Dm    Am      Dm
¡Ay! trigal de pasión  
      Am   Bb
y estallar  en locura ardiente de un amor  
G7                          A7
materia pendiente entre vos y yo. 

SIKU*

SEGUNDA PARTE CON LOS MISMOS ACORDES DE LA PRIMERA

Sé que tú te enredarás  
entre mis sábanas de ilusión  
deshojaremos aquella flor  
eL rojo pétalo del amor.

Sé que mi sombra reseca está  
mojarla quiero en tu sudor  
sobre tu cuerpo ella estará  
desnuda y frágil te besará. 

¡Ay! trigal de pasión  
y estallar en locura ardiente del amor  
materia pendiente entre vos y yo. 

SIKU*

Sé que tú te enredarás  
entre mis sábanas de ilusión  
deshojaremos aquella flor  
eL rojo pétalo del amor.

PUENTE*

SIKU* (en el último Rem de esta parte Rubén empieza a cantar)

Dm     Am      Dm       Am       REm
¡Ay! trigal del amor y estallar de pasión...(repite hasta terminar) 


INTRO*:

Es con charango pero se puede hacer con guitarra usando

 Dm  Am  Gm  A7
--5----5----3-----5---1ra
--6----5----3-----5---
--7----5----3-----6---
--7----7----5-----5---4ta 

También pueden hacerlo con las tres últimas cuerdas, o bien con los acordes 
con cejilla enteros, pero tratando de resaltar los sonidos agudos.

Y si los acompaña otra guitarra pueden hacer lo que hace el bajo:


--------7---7-10-9-7-5-----5----------------7-6---6----3ra  (en el bajo 1ra)|
------7---7--------------7---8----5-7-8-7-8-----7---7--                     |
--5-8------------------7--------5----------------------                     |X2 
-------------------------------------------------------6ta  (en el bajo 4ta)|

SIKU* 

Para tocar con la guitarra lo que hace el siku hagan:
                                
                           
Dm                 Am       Dm                 Am     Lam/Sol#m/Solm     
-------------------5-8-10-8----------------------5-8-10-8-------------6-6-5-6-5------
-6-6-5---5-6-6---6-------------6-6-5---5-6-6---6--------------------------------8----
------7-------7----------------------7-------7---------------------------------------


  Dm             A7                 Dm  A7
---5-5---5-------------------------------------1ra 
-8-----8---8-6---6-8-8-6-8-6-5-5-2-3-5-3--3-1--    
-----------------------------------------------3ra 

PUENTE*

Es lo mismo que INTRO pero lo que hace el bajo es distinto:

------------------------------------------------------------9\6-6------3ra  (en el bajo 1ra)| 
---------7-5------------------6~7----------7-5--------5-7-8------------                     |
-0-5-7-8-----7----------5-8-7------0-5-7-8-----7----5------------------                     |X2
---------------8--4/5-8-------------------------8----------------------6ta  (en el bajo 4ta)|

\= arrastre descendente  ~=ligado
  
CUALQUIER DUDA ESCRIBAN A fabian_
Suggest correction
Creating personal tab
Creating personal tab
You can edit any tab online and save it as your Personal.

You can edit, replace or remove any tab part or add personal notes – all changes will be seen only by you.

Personal tabs can be accessed anytime from any device, even offline.
Learn more »
Give kudos to tab author, rate the tab!
1 2 3 4 5
comments
print report bad tab
guest
Wanna post a correction for this tab? Suggest correction