Oops, an error
Loading. Please wait.

Piedra Y Camino tab

version 2
version 2

Whole song

19 views 1 this week
no commentswrite comment
1 2 3 4 5
3 more votes to show rating
add to favorites
×
Save as Personal and add changes to this tab that will be seen only by you. Learn more ›
×
You can save this tab as Personal to edit and correct it or add notes. All changes will be seen only by you. Learn more »
launch autoscroll
font size
0
reset
how to read this tab
guitar tuner
edit
Autoscroll
slow
fast
+/-
esc
set tempo
stop
Intro:


E|-10-9-10------|---------1-5-3-1-0|-
B|-10-9-10-9--6-|-------3-3-6-5-3-2|-
G|---------9--7-|-----2------------|-
D|--------------|-0-3--------------|-
A|--------------|------------------|-
E|--------------|------------------|-


E|-------------------|-------------------10----13---|-
B|-------------------|-10-11-10-9-10-11-------------|-
G|-------------------|------------------10/14--14---|-
D|-------------------|------------------------------|-
A|-0~1~0---0-1-0-4-7-|------------------------------|-
E|-------4----------|-------------------------------|-

E|-1-1--1-1-3-5~4~5--------|-
B|-3-3--3-3-5-6~5~6--8-6-5-|-
G|-------------------9-7-6-|-
D|-------------------------|-
A|-------------------------|-
E|-------------------------|-


E|-------------------------|-5-5-5-----|-
B|-------------------------|-9-9-9-----|-
G|-------------------------|-----------|-
D|-----------------5-7-----|-----------|-
A|-0-1-0---0--4-5-7----4-5-|-----------|-
E|-------4-----------------|-----------|-


    Dm       D7     Gm
Del cerro vengo bajando
C7         F    A7
camino y piedra
    Dm                A7
traigo enredada en el alma, viday
Gm    F      A7  Dm
uuuuuuna tristeeeza
    Dm                A7
traigo enredada en el alma, viday

Gm    F      A7  Dm
uuuuuuna tristeeeza


Me acusas de no quererte
no digas eso
tal vez no comprendas nunca, viday
porque me alejo
tal vez no comprendas nunca, viday
porque me alejo.


Estribillo

D7        Gm
Es mi destino
 C          F     A7
piedra y camino
      Dm            A7
de un sueño lejano y bello, viday
Gm    F    A7  Dm
soooy pere griino
      Dm            A7
de un sueño lejano y bello, viday
Gm    F    A7  Dm
soooy pere griino


Repite intro.

Por mas que la dicha busco
vivo penando
y cuando debo quedarme, viday
me voy andando
y cuando debo quedarme, viday
me voy andando.

A veces soy como el río
llego cantando
y sin que nadie lo sepa, viday
me voy llorando
y sin que nadie lo sepa, viday
me voy llorando.
Suggest correction
Creating personal tab
Creating personal tab
You can edit any tab online and save it as your Personal.

You can edit, replace or remove any tab part or add personal notes – all changes will be seen only by you.

Personal tabs can be accessed anytime from any device, even offline.
Learn more »
Give kudos to tab author, rate the tab!
1 2 3 4 5
comments
print report bad tab
guest
Wanna post a correction for this tab? Suggest correction