Oops, an error
Loading. Please wait.

Pretenciosa tab

19 views 1 this week
no commentswrite comment
1 2 3 4 5
3 more votes to show rating
add to favorites
×
Save as Personal and add changes to this tab that will be seen only by you. Learn more ›
×
You can save this tab as Personal to edit and correct it or add notes. All changes will be seen only by you. Learn more »
launch autoscroll
font size
0
reset
how to read this tab
guitar tuner
edit
Autoscroll
slow
fast
+/-
esc
set tempo
stop
Aqui esta la letra y la tablitura completa 
(dedicado a todas las pretenciosas de la iglesia Adventista)

Intro

E||---------------------------------------5-4-5---------------------|
B||-------------------------------------6-------8-8-6-6/8-5-8-6-5-6-| 
G||--2-3-2-1-2------------------------7-----------------------------|
D||------------0,-0-2-3,-5-6-7,-6-7-8-------------------------------|
A||-----------------------------------------------------------------|
E||-----------------------------------------------------------------|


E||------------------------------(12x6)-10-10-9-9-7-7-9-10----|
B||-----------------------------------------------------------| 
G||--2-3-2-1-2---2--------------------------------------------|
D||------------0---2-3-5,5-6-7--------------------------------|
A||-----------------------------------------------------------|
E||-----------------------------------------------------------|


 REm                   MI7
Tan pretencioso es tu amor
 LA7                REm  RE7
que hasta la luna te dí
SOLm                 REm
para alumbrarte esas noches
                LA7                 REm RE7
que andar trás el canto me alejan de tí
SOLm                 REm
para alumbrarte esas noches
                 LA7                 REm
que andar tras el canto me alejan de tí

(igual los mismos acordes)

Si acaso digo que no
a tus caprichos mujer
llorará mi alma de frío
buscando el hastío perdido en tu piel
llorará mi alma de frío
buscando el hastío perdido en tu piel

 DO              FA
Pídeme niña si quieres
              LA7                   REm RE7 
las horas que duelen de tanto esperar 
 SOLm                    REm            
Yo he de llenarlas con besos
             LA7             REm 
pero no me pidas que no cante más
SOLm                REm
Que de tu amor vivo preso
           LA7                 REm
pero no me pidas que no cante más!!


La copla trepa en mi vos
la pena en tu atardecer
MI copla llega A LA samba
y tu pena avanza bendita mujer
MI copla llega A LA samba
y tu pena avanza bendita mujer


Si andas buscando que yo
muera de a poco por ti
no he de cumplir tus antojos
si yo por tus ojos prefriero vivir
no he de cumplir tus antojos
si yo por tus ojos prefriero vivir

pideme niña...

fin.

         |||||
         \¬_¬/ Gustavo Ctes. Arg

            
            
Suggest correction
Creating personal tab
Creating personal tab
You can edit any tab online and save it as your Personal.

You can edit, replace or remove any tab part or add personal notes – all changes will be seen only by you.

Personal tabs can be accessed anytime from any device, even offline.
Learn more »
Give kudos to tab author, rate the tab!
1 2 3 4 5
comments
print report bad tab
guest
Wanna post a correction for this tab? Suggest correction