Oops, an error
Loading. Please wait.

Si Te Has Quedado Sola tab

31 views 1 this week
no commentswrite comment
1 2 3 4 5
3 more votes to show rating
add to favorites
×
Save as Personal and add changes to this tab that will be seen only by you. Learn more ›
×
You can save this tab as Personal to edit and correct it or add notes. All changes will be seen only by you. Learn more »
launch autoscroll
font size
0
reset
how to read this tab
guitar tuner
edit
Autoscroll
slow
fast
+/-
esc
set tempo
stop
Intro: 42 44 42 41 42 31 20 10

Acompañamiento: G#7-C#m- G#-C#m 60 62 64 -A-Edim-E-F#m-B-E


e|---16-16-16-16-16-|-14--11---16--14-11----|16-12-11----11-12-|
B|------------------|-16--13-------16-13----|---------14-------|
G|-13---------------|--------13----------13-|------------------|
D|------------------|-----------------------|------------------|
A|------------------|-----------------------|------------------|
E|------------------|-----------------------|------------------|


e|---16-16-16-16-16-|-14--11---16--14-11----|-12-11------------|
B|------------------|-16--13---17--16-13----|-------14---------|
G|-13---------------|--------13----------13-|------------------|
D|------------------|-----------------------|------------------|
A|------------------|-----------------------|------------------|
E|------------------|-----------------------|------------------|


                                  P
e|--------------9-----9--9-----9--9--7-7~9~7-|
B|------9-10-12--10-10----11-11---11-9-9-----|
G|-9-11------------9--------9-----9----------|
D|-------------------------------------------|
A|-------------------------------------------|
E|-------------------------------------------|


e|-16-16-14-14~16~14-12-12~14~12-11-11-9--9--7-7~9~7-6-6-5-5-4-4|
B|-17-17-16-16-------14-14-------12-12-10-10-9-9-----8-8-7-7-5-5|
G|--------------------------------------------------------------|
D|--------------------------------------------------------------|
A|--------------------------------------------------------------|
E|--------------------------------------------------------------|


e|-3-4-5-6-7-|
B|-4-5-7-8-9-|
G|-----------|
D|-----------|
A|-----------|
E|-----------|


E                    C#7
Hoy alguien me ha contado
          F#m
Que estás triste
B7                      E
Me pareció ironía tu dolor
C#7                        F#m7
Y recordé la tarde que te fuiste
B7                      E B7 E
Y reviví los días del amor.

E              C#7      F#m7
Se me llenó la tarde de tristeza
B7                           E
Y me dolió de pronto comprender
C#7                        F#m7
Como en algún rincón de mi cabeza
B7
Quedó por siempre presa
                 E
Tu tibieza de mujer.

ESTRIBILLO:

E                 F#m7
Si te has quedado sola
B7             G#m7
Será que no supiste
C#7              F#m7
Medir cuando te fuiste
B7                E
Lo mucho que te amé.

E                 B7  Cdim
Si te has quedado sola
C#m   RE#dim Emaj7
Repasa tu memoria
C#7          F#m7       B7        E
Amar es una gloria que yo te regalé.
G#7
Si te has quedado sola
              C#m
Sin nadie que te quiera tu culpa
G#7                    Bm7  E7
Compañera es hora de pagar.


A
Si te has quedado sola
Edim         G#m7
Lo tienes merecido
     C#7         F#m7
Llorar un bien perdido
         B7           E
Es no haber sabido amar. (Bis)


Música instrumental
G#7-C#m-G#7-C#m 60 62 64 -A-Edim-E-F#m-B-E


e|---16-16-16-16-16-|-14--11---16--14-11----|16-12-11----11-12--|
B|------------------|-16--13-------16-13----|---------14--------|
G|-13---------------|--------13----------13-|-------------------|
D|------------------|-----------------------|-------------------|
A|------------------|-----------------------|-------------------|
E|------------------|-----------------------|-------------------|


e|---16-16-16-16-16-|-14--11---16--14-11----|-12-11-10/14-12----|
B|------------------|-16--13---17--16-13----|-------------------|
G|-13---------------|--------13----------13-|-------------------|
D|------------------|-----------------------|-------------------|
A|------------------|-----------------------|-------------------|
E|------------------|-----------------------|-------------------|


e|--------------9--8-9--12--11-9---9--7/16----------------------|
B|------9-10-12-10-9-10-14--12-10--10-9/17----------------------|
G|-9-11---------------------------------------------------------|
D|--------------------------------------------------------------|
A|--------------------------------------------------------------|
E|--------------------------------------------------------------|


e|-16-16-14-14~16~14-12-12~14~12-11-11-9--9--7-7~9~7-6-6-5-5-4-4|
B|-17-17-16-16-------14-14-------12-12-10-10-9-9-----8-8-7-7-5-5|
G|--------------------------------------------------------------|
D|--------------------------------------------------------------|
A|--------------------------------------------------------------|
E|--------------------------------------------------------------|


e|-3-4-5-6-7-|
B|-4-5-7-8-9-|
G|-----------|
D|-----------|
A|-----------|
E|-----------|


(Esta primera estrofa se toca con arpegios)

E             C#7          F#m7
Nadie cultiva rosas sin cuidarlas
B7            Cdim         G#m7
No pueden dar perfume ni color
C#7                          F#m7
Donde no hubiera manos para amarlas
B7                         E G#m7 Gm7 F#m7
No crecería nunca ni una flor.

E                 C#7         F#m7
Si te has quedado sola yo lo siento
B7                         E
Pero debiste al menos comprender
C#7                          F#m7
No estuvo bien burlar mis sentimientos
            B7                        E
Ahora lo lamento no es momento de querer

ESTRIBILLO:

E                 F#m7
Si te has quedado sola
B7             G#m7
Será que no supiste
C#7                F#m7
Medir cuando te fuiste
B7                E
Lo mucho que te amé.

E                  B7 Cdim
Si te has quedado sola
C#m   RE#dim Emaj7
Repasa tu memoria
C#7          F#m7       B7         E
Amar es una gloria que yo te regalé.
G#7
Si te has quedado sola
                  C#m
Sin nadie que te quiera tu culpa
G#7                    Bm7  E7
Compañera es hora de pagar.


A
Si te has quedado sola
Edim          G#m  (LAdim para el segundo bis)
Lo tienes merecido
   C#7           F#m7
Llorar un bien perdido
         B7          D    E
Es no haber sabido amaaaaaaar. (Bis) En el bis terminar con E D E

            
            
Suggest correction
Creating personal tab
Creating personal tab
You can edit any tab online and save it as your Personal.

You can edit, replace or remove any tab part or add personal notes – all changes will be seen only by you.

Personal tabs can be accessed anytime from any device, even offline.
Learn more »
Give kudos to tab author, rate the tab!
1 2 3 4 5
comments
print report bad tab
guest
Wanna post a correction for this tab? Suggest correction