Oops, an error
Loading. Please wait.

Tu Naturaleza tab

1 view 1 this week
no commentswrite comment
1 2 3 4 5
3 more votes to show rating
add to favorites
×
Save as Personal and add changes to this tab that will be seen only by you. Learn more ›
×
You can save this tab as Personal to edit and correct it or add notes. All changes will be seen only by you. Learn more »
launch autoscroll
font size
0
reset
how to read this tab
guitar tuner
edit
Autoscroll
slow
fast
+/-
esc
set tempo
stop
Ritmo: Carnavalito

Intro: Em-B7-B7-Em Em-B7-Am-G-B7-Em

E|---------------------||-----------------------||
B|--5--5--5--7-5-4-----||--4--4--4--4-4-5-4-5---||
G|-4--4--4---------4-2-||-4--4--4--4---------4--||
D|---------------------||---------------------5-||
A|---------------------||-----------------------||
E|---------------------||-----------------------||

E|-------------------------||-7-8-5-5-8-5-7-----7-5----------|
B|--8--8--8--8-8-10-8-7----||--------------8-8-8---7-7-8-7-5-|
G|-9--9--9--9----------9-8-||--------------------------------|
D|-------------------------||--------------------------------|
A|-------------------------||--------------------------------|
E|-------------------------||--------------------------------|


C
Como te voy a olvidar
                G
Brasita de mi invierno

Cielito al despertar
B7                      Em
Y por la noche el infierno


C
Ay monedita de luz
                                 G
Grabándose en mi corazón a fuego lento

Que juega a cara o cruz
B7                 Em
Brillando de sentimiento


D              G               B7
Arde la luna o quiere amanecer
              Em
Todo por ti mujer
D             G
Lloverá en la Puna
F#        C       B7
Si no quisieras dejarte querer


ESTRIBILLO:
           Em        C        B7
           Canta que canta mi corazón
                      Em
           A tu naturaleza
                           B7
           Tanta belleza refleja el sol
                          Em
           Quemándome de amor
                      C                 B7
           Lloraré si llora el cielo en tu mirar
                                Em
           Tristeza habrá en mi pueblo
                     C            B7
           Llorará febrero sin su carnaval
                         Em
           Lagrimitas de sal.


Repite Intro


Ay monedita de luz... (repite todo desde aqui)


Final: Em-B7-Am-G-B7-Em


Espero q les guste, y un saludo a Ruben (mi Padrino)

            
            
Suggest correction
Creating personal tab
Creating personal tab
You can edit any tab online and save it as your Personal.

You can edit, replace or remove any tab part or add personal notes – all changes will be seen only by you.

Personal tabs can be accessed anytime from any device, even offline.
Learn more »
Give kudos to tab author, rate the tab!
1 2 3 4 5
comments
print report bad tab
guest
Wanna post a correction for this tab? Suggest correction