Oops, an error
Loading. Please wait.

Tu Y Yo tab

version 1
version 1

Whole song

14 views 1 this week
no commentswrite comment
1 2 3 4 5
3 more votes to show rating
add to favorites
×
Save as Personal and add changes to this tab that will be seen only by you. Learn more ›
×
You can save this tab as Personal to edit and correct it or add notes. All changes will be seen only by you. Learn more »
launch autoscroll
font size
0
reset
how to read this tab
guitar tuner
edit
Autoscroll
slow
fast
+/-
esc
set tempo
stop
   

intro:Esta es una bella introduccion que es facil de tocar, creo que esta bastante parecida
a la original. Espero que la disfruten.
      
      b = arrastre 
                                                                         
E||--------------------------------------------------------------------
B||-------5----5b7-------------7----10----9------7----5----7b10----10--
G||--6--------------6-----6--------------------------------------------
D||--------------------------------------------------------------------
A||--------------------------------------------------------------------
E||-------------------------------------------------------------------
                                                                     
-----------------------------------------5------7----7b9---7b10---9----
--10--------7----9------10----9----------------------------------------
--------7--------------------9-----------------------------------------
-----------------------------------------------------------------------
-----------------------------------------------------------------------
-----------------------------------------------------------------------
                                                                        
--7---------------9b10-----7-----------------------------------------
-------10----9----------------10----9----7------7----9----10---------
----------------------------------------------------------------7----
---------------------------------------------------------------------
---------------------------------------------------------------------
---------------------------------------------------------------------
                                             
-------------------------------------------||
------------7b9---7-----6----7b9---7----6--||
--6----5-----------------------------------||
-------------------------------------------||
-------------------------------------------||
-------------------------------------------||


     FA#m           MI7
Yo no se la justa medida
      FA#m           MI7
si el amor eterno es mejor
         RE      MI7        LA
sobre aquel que curo las heridas
                    SI           LA     
o en pampa y la via quedo por vivir
     DO#m  RE  MI7   LA     DO#7
desesperado una pasion...


Yo no se amar como Cristo
yo no se si este amor tendra fin
pero amando a mi modo yo insisto
que nadie en su juicio podra amarte asi
tal como yo te amo a ti...
***********************
Estribillo: (Mismos acordes, cambia al final como veran) 

Si el amor es seguir adelante
hay de aquel que de amor se murio
yo prefiero vivir para amarte
llevando en mi carne la cruz de tu amor
 DO#m RE DO#m FA#m MI7 LA DO#m         
tu y yo, yo y tu, tu y yo
************************
Repite intro: Fa#m-MI7-Re-MI7-La-Do#m-Fa#m-MI7-Re-Do#7

Una vez, me he sentido un poeta
y otra vez un obrero del sol
una vez te ame como Julieta
mirando a Romeo desde su balcon
Y otra vez llore de amor...

Me senti, condenado a perpetua
encerrado en tu habitacion
como yo perdone tu belleza
y tu no has querido tener compasion
Y aqui me tienes aqui estoy...
Suggest correction
Creating personal tab
Creating personal tab
You can edit any tab online and save it as your Personal.

You can edit, replace or remove any tab part or add personal notes – all changes will be seen only by you.

Personal tabs can be accessed anytime from any device, even offline.
Learn more »
Give kudos to tab author, rate the tab!
1 2 3 4 5
comments
print report bad tab
guest
Wanna post a correction for this tab? Suggest correction