Oops, an error
Loading. Please wait.

Tu Y Yo tab

version 2
version 2

Whole song

12 views 1 this week
no commentswrite comment
1 2 3 4 5
3 more votes to show rating
add to favorites
×
Save as Personal and add changes to this tab that will be seen only by you. Learn more ›
×
You can save this tab as Personal to edit and correct it or add notes. All changes will be seen only by you. Learn more »
launch autoscroll
font size
0
reset
how to read this tab
guitar tuner
edit
Autoscroll
slow
fast
+/-
esc
set tempo
stop
Intro
***
***
***
             S= DESLISAR EL DEDO
             ~= VIBRATO 
1ra parte

e--------------5-4----      luego de tocar la 1ra
b----4-6~----6-----6-4      parte se toca en seguida   
g--5-----5-5----------      la 2da parte.   
D---------------------
A---------------------
E---------------------

2da parte 
 S=DESLIZAR- SE TOCA 5 DESLIZANDO A 9

e-5-4----5-4-5s9-10-9-      luego de tocar la 2da   
b---------------------      parte se toca en seguida    
g-----6~--------------      la 3ra parte.   
D---------------------
A---------------------
E---------------------

3ra parte

e--------9------------      luego de tocar la 3ra 
b-12-10-9-10-9-10-----      parte se toca en seguida 
g---------------------      la 4ta parte.  
D---------------------
A---------------------
E---------------------

4ta parte fin.
e---------------------
b-6s8--6s8--6s8-------
g----8----8----8------
D---------------------
A---------------------
E---------------------


Espero que les guste.
para mas consulta
Juanlz20@

            
            
Suggest correction
Creating personal tab
Creating personal tab
You can edit any tab online and save it as your Personal.

You can edit, replace or remove any tab part or add personal notes – all changes will be seen only by you.

Personal tabs can be accessed anytime from any device, even offline.
Learn more »
Give kudos to tab author, rate the tab!
1 2 3 4 5
comments
print report bad tab
guest
Wanna post a correction for this tab? Suggest correction