Oops, an error
Loading. Please wait.

No Te Vayas tab

version 2
version 2

Whole song

16 views 1 this week
no commentswrite comment
1 2 3 4 5
3 more votes to show rating
add to favorites
×
Save as Personal and add changes to this tab that will be seen only by you. Learn more ›
×
You can save this tab as Personal to edit and correct it or add notes. All changes will be seen only by you. Learn more »
launch autoscroll
font size
0
reset
how to read this tab
guitar tuner
edit
Autoscroll
slow
fast
+/-
esc
set tempo
stop
exelente rola! esta para dedicarla  jeje
escuchen la rola para que la siguan.

INTRO

e----------------------------------------------
B-------5-----------5-----------5----------5---
G----4-----4-----4-----4-----4-----4----4-----4
D-6-----------6----------6/7----------6--------
A----------------------------------------------
E----------------------------------------------

e----------------------------------------------
B-----5--5-----5-------------5-----7-----5--------
G-4--6------6-----6----4--4-----4-----4-----4-----
D----------------------------------------------
A----------------------------------------------
E----------------------------------------------

este es el riff 1 se toca X5
en el X2 entra la voz

VERSO 1

por favor

escuchame

no te quiero perder

no se que haria si no estas

Aqui entra la 2da guitarra con palm mute (PM)

e----------------------------------------------
B----------------------------------------------
G--9-------------------6---------4-------------
D--9--(X9)---7---------6--(X9)---4--(X9)-------
A--7---------7--(X9)---4---------2-------------
E------------5---------------------------------

este sera el riff 2 y se toca X2

estuve ciego

por que nunca pude ver

a ese angel convertido en mujer

que bajo del cielo y sin querer

se enamoró de mi

INTERLUDIO

e--------------------
B--------------------
G---4-4--------------
D---4-4--------------
A---2-2--------------
E--------------------

CORO

e----------------------------------------------
B----------------------------------------------
G---9----------6-----------------4-------------
D---9----------6--------7--------4-------------
A---7----------4--------7--------2-------------
E-----------------------5----------------------


se toca X2 y Cada acorde se toca varias veces escuchen la rola.


perdon

por no saberte amar

con una vida quiero remediar

tu corazon yo lo quiero cuidar

no te vayas
no te vayas
no te vayas

VERSO 2

empieza de nuevo el riff 1 con riff 2 con (PM)

por favor

perdoname

no te quiero perder

no se que haria

si no estas

Aqui se toca el riff 2 pero con una variacion y sin PM escuchen.

perdon si una lagrima lloraste por mi

perdon si solo un dia no te hice feliz

INTERLUDIO

e--------------------
B--------------------
G---4-4--------------
D---4-4--------------
A---2-2--------------
E--------------------

CORO

e----------------------------------------------
B----------------------------------------------
G---9----------6-----------------4-------------
D---9----------6--------7--------4-------------
A---7----------4--------7--------2-------------
E-----------------------5----------------------

se toca igual nomas que tiene mas arreglos con requinteo.

perdon

por no saberte amar

con una vida quiero remediar

tu corazon yo lo quiero cuidar

no te vayas
no te vayas
no te vayas

Listo ahi esta la rola para cualquier duda escribanme a mi mail
jamaica_david23@

ahi me la califican para que no la quiten.

saludos pa la banda rokr!!

            
            
Suggest correction
Creating personal tab
Creating personal tab
You can edit any tab online and save it as your Personal.

You can edit, replace or remove any tab part or add personal notes – all changes will be seen only by you.

Personal tabs can be accessed anytime from any device, even offline.
Learn more »
Give kudos to tab author, rate the tab!
1 2 3 4 5
comments
print report bad tab
guest
Wanna post a correction for this tab? Suggest correction