Oops, an error
Loading. Please wait.

Si Tu Me Dices Ven tab

version 1
version 1

Whole song

472 views 1 this week
no commentswrite comment
1 2 3 4 5
3 more votes to show rating
add to favorites
×
Save as Personal and add changes to this tab that will be seen only by you. Learn more ›
×
You can save this tab as Personal to edit and correct it or add notes. All changes will be seen only by you. Learn more »
launch autoscroll
font size
0
reset
how to read this tab
guitar tuner
edit
Autoscroll
slow
fast
+/-
esc
set tempo
stop
                 Dm                 Dm       Gm       Gm

e-13-13-12-12-10-10--13-13-12-12-10-10-8-8-6-5-3-6-5-3
b-----------------------------------------------------
g-----------------------------------------------------
d-----------------------------------------------------
a-----------------------------------------------------
E-----------------------------------------------------

                   C                C       F      F

e-12-12-12-10-10-8-8--12-12-10-10-8-8-6-5-3-6-5-3-1
b--------------------------------------------------
g--------------------------------------------------
d--------------------------------------------------
a--------------------------------------------------
E--------------------------------------------------

                 Bb             Bb      A7      A7

e-10-10-10-8-8-6-6--10-10-8-8-6-6-5-5-3-5-6-5-3--
b-----------------------------------------------6
g------------------------------------------------
d------------------------------------------------
a------------------------------------------------
E------------------------------------------------

        Dm       A7      Dm      A7      Dm

e-6-5-3---5-3-----3------------------------
b-------6-----6-5---6-5-3-------2---------2
g-----------------------------0---0---0----
d---------------------------2-------2------
a-------------------------0-------------0--
E------------------------------------------

              Dm           Gm
Si tú me dices ven, lo dejo todo,
                C                  F
si tú me dices ven, será todo para ti,
                  Bb                       Am
mis momentos más ocultos también te los daré,
                     Bb        C           F
mis secretos que son pocos serán tuyos también.
               Gm   C7         F
Si tú me dices ven, todo cambiará,
               Gm     A7        Dm
si tú me dices ven, habrá felicidad
               Gm      A7          Dm     A7
si tú me dices ven, si tú me dices ven.

CORO
Dm                         D7        Gm
No detengas el momento por las indecisiones,
C7                                        F
para unir alma con alma, corazón con corazón,
        Dm     D7             Gm
reír contigo ante cualquier dolor,
          Dm               E7     A7          Dm
llorar contigo, llorar contigo será mi salvación.
                    Dm D7          Gm
Pero sí tu me dices ven, lo dejo todo,
                  C7
que no se te haga tarde,
                                F
y te encuentres en la calle, perdida,
    D7 Gm         A7 Dm
sin rumbo y en el lodo.
               E7 A7        Dm
Si tú me dices ven, lo dejo todo.

                 Dm                 Dm       Gm       Gm

e-13-13-12-12-10-10--13-13-12-12-10-10-8-8-6-5-3-6-5-3
b-----------------------------------------------------
g-----------------------------------------------------
d-----------------------------------------------------
a-----------------------------------------------------
E-----------------------------------------------------

                   C                C       F      F

e-12-12-12-10-10-8-8--12-12-10-10-8-8-6-5-3-6-5-3-1
b--------------------------------------------------
g--------------------------------------------------
d--------------------------------------------------
a--------------------------------------------------
E--------------------------------------------------

                 Bb             Bb      A7      A7

e-10-10-10-8-8-6-6--10-10-8-8-6-6-5-5-3-5-6-5-3--
b-----------------------------------------------6
g------------------------------------------------
d------------------------------------------------
a------------------------------------------------
E------------------------------------------------

        Dm       A7      Dm      A7      Dm

e-6-5-3---5-3-----3------------------------
b-------6-----6-5---6-5-3-------2---------2
g-----------------------------0---0---0----
d---------------------------2-------2------
a-------------------------0-------------0--
E------------------------------------------

CORO
Dm                         D7        Gm
No detengas el momento por las indecisiones,
C7                                        F
para unir alma con alma, corazón con corazón,
        Dm     D7             Gm
reír contigo ante cualquier dolor,
          Dm               E7     A7          Dm
llorar contigo, llorar contigo será mi salvación.
                    Dm D7          Gm
Pero sí tu me dices ven, lo dejo todo,
                  C7
que no se te haga tarde,
                                F
y te encuentres en la calle, perdida,
    D7 Gm         A7 Dm
sin rumbo y en el lodo.
               E7 A7        Dm
Si tú me dices ven, lo dejo todo.
Suggest correction
Creating personal tab
Creating personal tab
You can edit any tab online and save it as your Personal.

You can edit, replace or remove any tab part or add personal notes – all changes will be seen only by you.

Personal tabs can be accessed anytime from any device, even offline.
Learn more »
Give kudos to tab author, rate the tab!
1 2 3 4 5
comments
print report bad tab
guest
Wanna post a correction for this tab? Suggest correction