Oops, an error
Loading. Please wait.

Si Tu Me Dices Ven tab

version 2
version 2

Whole song

343 views 1 this week
no commentswrite comment
1 2 3 4 5
3 more votes to show rating
add to favorites
×
Save as Personal and add changes to this tab that will be seen only by you. Learn more ›
×
You can save this tab as Personal to edit and correct it or add notes. All changes will be seen only by you. Learn more »
launch autoscroll
font size
0
reset
how to read this tab
guitar tuner
edit
Autoscroll
slow
fast
+/-
esc
set tempo
stop
Para ti ojitos de lucero.

|--8---8---7--7-5-5---8---8---7--7-5-5----|
|-----------------------------------------|
|-----------------------------------------|
|-----------------------------------------|
|-----------------------------------------|
|-----------------------------------------|

|-----------------------------------------|
|--8-6-5----------------------------------|
|--------7-6-9-7-7-6-7--------------------|
|-----------------------------------------|
|-----------------------------------------|
|-----------------------------------------|

|--7--7--5--5--3-3---7--7--5--5--3-3------|
|-----------------------------------------|
|-----------------------------------------|
|-----------------------------------------|
|-----------------------------------------|
|-----------------------------------------|

|-----------------------------------------|
|-6-5-------------------------------------|
|-----7-5-4--7-5-5-4-5--------------------|
|-----------------------------------------|
|-----------------------------------------|
|-----------------------------------------|

|-5--5--3--3--1--1--5--5--3--3--1--1------|
|-----------------------------------------|
|-----------------------------------------|
|-----------------------------------------|
|-----------------------------------------|
|-----------------------------------------|

|-----------------------------------------|
|-5--3--1---------------------------------|
|----------4--2--5-4-4-2-4----------------|
|-----------------------------------------|
|-----------------------------------------|
|-----------------------------------------|

|--1--0--------0----------------------0-0----|
|--------3--1----3--1--0--3--1--0-----1-1----|
|-------------------------------------2-2----|
|--------------------------------------------|
|----------------------------------0------3--|
|--------------------------------------------|

               LAm           REm
Si tu me dices ven, lo dejo todo
               SOL7                DO
si tu me dices ven, será todo para ti
                FA
mis momentos más ocultos,
                MIm
también te los daré,
                        FA
mis secretos que son pocos,
                MIm   LA7
serán tuyos también.

REm            SOL7            DO
Si tu me dices ven, todo cambiará
                REm   MIm       LAm
si tu me dices ven, habrá felicidad,
                REm   MIm       LAm
si tu me dices ven, si tu me dices ven.


LAm                    LA7             REm
No detengas el momento por la indecisiones,
SOL7                                     DO
para unir alma con alma, corazón con corazón,
             LA7                REm
reír contigo ante cualquier dolor,
LAm                          B7
llorar contigo, llorar contigo,
MIm             LAm
será mi salvación.


                   LAm            REm
Pero si tu me dices ven, lo dejo todo,
SOL7
que no se te haga tarde

y te encuentres en la calle
DO           REm           LAm
perdida, sin rumbo y en el lodo
                B7  MIm      LAm
si tu me dices ven, lo dejo todo


|--8---8---7--7-5-5---8---8---7--7-5-5----|
|-----------------------------------------|
|-----------------------------------------|
|-----------------------------------------|
|-----------------------------------------|
|-----------------------------------------|

|-----------------------------------------|
|--8-6-5----------------------------------|
|--------7-6-9-7-7-6-7--------------------|
|-----------------------------------------|
|-----------------------------------------|
|-----------------------------------------|

|--7--7--5--5--3-3---7--7--5--5--3-3------|
|-----------------------------------------|
|-----------------------------------------|
|-----------------------------------------|
|-----------------------------------------|
|-----------------------------------------|

|-----------------------------------------|
|-6-5-------------------------------------|
|-----7-5-4--7-5-5-4-5--------------------|
|-----------------------------------------|
|-----------------------------------------|
|-----------------------------------------|

|-5--5--3--3--1--1--5--5--3--3--1--1------|
|-----------------------------------------|
|-----------------------------------------|
|-----------------------------------------|
|-----------------------------------------|
|-----------------------------------------|

|-----------------------------------------|
|-5--3--1---------------------------------|
|----------4--2--5-4-4-2-4----------------|
|-----------------------------------------|
|-----------------------------------------|
|-----------------------------------------|

|--1--0--------0----------------------0-0----|
|--------3--1----3--1--0--3--1--0-----1-1----|
|-------------------------------------2-2----|
|--------------------------------------------|
|----------------------------------0------3--|
|--------------------------------------------|

LAm                    LA7              REm
No detengas el momento por la indecisiones,
SOL7                                     DO
para unir alma con alma, corazón con corazón,
              LA7             REm
reír contigo ante cualquier dolor,
           LAm               B7
llorar contigo, llorar contigo,
MIm             LAm
será mi salvación.


                    LAm           REm
Pero si tu me dices ven, lo dejo todo,
SOL7
que no se te haga tarde

y te encuentres en la calle
DO            REm           LAm
perdida, sin rumbo y en el lodo
                B7  MIm      LAm
si tu me dices ven, lo dejo todo

            
            
Suggest correction
Creating personal tab
Creating personal tab
You can edit any tab online and save it as your Personal.

You can edit, replace or remove any tab part or add personal notes – all changes will be seen only by you.

Personal tabs can be accessed anytime from any device, even offline.
Learn more »
Give kudos to tab author, rate the tab!
1 2 3 4 5
comments
print report bad tab
guest
Wanna post a correction for this tab? Suggest correction