Oops, an error
Loading. Please wait.

Anhelo En La Lluvia tab

14 views 1 this week
no commentswrite comment
1 2 3 4 5
3 more votes to show rating
add to favorites
×
Save as Personal and add changes to this tab that will be seen only by you. Learn more ›
×
You can save this tab as Personal to edit and correct it or add notes. All changes will be seen only by you. Learn more »
launch autoscroll
font size
0
reset
how to read this tab
guitar tuner
edit
Autoscroll
slow
fast
+/-
esc
set tempo
stop
esta es mi version... suena excelente, es 100% perfect!
por cortesia de PATI PAMI.[GERARDO ROMAY]

afinacion: STANDARD

   arpejeos-> Dadd9  Cadd9                B7

e|--7/3-3--5/2-2----3---------7-7h8-7-5-3-3h5-3-5/7vv-------|
B|--8/5-5--7/3-3----3---------------------------------------|
G|------------------0-(ring)--------------------------------|
D|------------------2---------------------------------------|
A|------------------3---------------------------------------|
E|----------------------------------------------------------|

 ->  Em       D Dsus   Cadd9                   B7

e|---7/3-3--5/2-2------3----------------------------------------|
B|---8/5-5--7/3-3------3---------5-7-7h8-7-5-4------------------|
G|---------------------0-----------------------5-4-2-2/4vvv-----|
D|---------------------2----------------------------------------|
A|---------------------3----------------------------------------|
E|--------------------------------------------------------------|

Em                           D
Vengase corriendo mire que estoy deseando  e|-----8-7-5-/7v--|(1)
        C                 B7(1)            B|-4-7------------|
su cabello largo, su sonrisa es algo
Em                        D (2)          e|10 10 10--5 5------|(2)
Vengase deprisa mire que estoy deseando  B|--------------8 8vv|
C                           B7
estrechar su cuerpo, con el mío temblando

    PRE CORO:
E         E7                 Am
Vengase muy pronto porque sufro un desamor
D                         G
venga que la brisa le aconseja
                 Am                        B7
Que me abra la puerta, que monte en sus huellas


                 Em | D | Am  C | Am  B7   (2)


 (CORO): (2 VECES)
Em                           Am
Vengase pronto que estoy necesitando bienestar
   D                            G
Alivio que cure mis penas con solo su mirar
  C                          Am                     B7
Aroma de lluvia que roce mi alma, que incite a la calma
**************************
Em                            D
Vengase deprisa mire que estoy deseando
     C                    B7
construir un nido, de preciso encanto
Em                          D
Vengase deprisa mire que estoy deseando
        C                   B7
conciliar el sueño, pero entre sus brazos

**************************

 (PRE-CORO):

**************************

(CORO):

Vengase pronto que hoy estoy necesitando (MUDO)
   D                       G
Alivio que cure mis penas con solo su mirar
  C                         Am                  B7
Aroma de lluvia que roce mi alma, que incite a la calma

**************************

Em | D | Am  C | Am  B7

**************************

Em                 D
Así es como es, así es en verano
               Am  C             Am          B7
Cuanto te extraño,    cuanto te amo y tú no llegas mi vida
Em                  D
Así es como es, así es en verano
               Am    C                    Am        B7
Nostalgia en la lluvia, tristeza en mis manos y espera que espera por ti
Em                D
Así es como es, así es en verano
                     Am             C        Am
hey dime si vas a venir, para entregarte mi vida y
                B7
la luna en un papel de regalo

**************************
(las entradas de acordeon son cada linea vertical)

e|----|-----|-----|-----|-----|-----|-----|----------------|
B|----|-----|-----|-----|-----|-----|-----|----------------|
G|----|-----|---4-|-4-4-|-4-5-|-4-5-|-5-4-|-5-4-5-4--------|
D|--2-|-2-2-|-2-4-|-4-4-|-4-5-|-4-5-|-5-4-|-5-4-5-4--------|
A|--2-|-2-2-|-2-2-|-2-2-|-2-3-|-2-3-|-3-2-|-3-2-3-2--------|
E|--0-|-0-0-|-0---|-----|-----|-----|-----|----------------|

**************************
Em | D | C | B7   (2 VECES)

**************************
Em                D
Así es como es, así es en verano
          Am     C                 Am        B7
Alivia mis penas,    al tenerte en mis brazos
Em                 D
Así es como es, así es en verano
               Am   C               Am          B7
Anhelo en la lluvia,    tristeza en mis manos

*************************
    FINAL:
                        (acordeon)
e|--7/3-3--5/2-2----3-------------------------7/3-3--5/2-2--|
B|--8/5-5--7/3-3----3-------------------------8/5-5--7/3-3--|
G|------------------0-(ring)--------------------------------|
D|------------------2---------------------------------------|
A|------------------3---------------------------------------|
E|----------------------------------------------------------|


CUALQUIER MEJORA O DEFECTO
POR FAVOR HAZMELO SABER gerardoromay@
Gerardo Romay (GUITARRISTA)

            
            
Suggest correction
Creating personal tab
Creating personal tab
You can edit any tab online and save it as your Personal.

You can edit, replace or remove any tab part or add personal notes – all changes will be seen only by you.

Personal tabs can be accessed anytime from any device, even offline.
Learn more »
Give kudos to tab author, rate the tab!
1 2 3 4 5
comments
print report bad tab
guest
Wanna post a correction for this tab? Suggest correction