Oops, an error
Loading. Please wait.

Casi Nunca Lo Ves tab

53 views 1 this week
no commentswrite comment
1 2 3 4 5
3 more votes to show rating
add to favorites
×
Save as Personal and add changes to this tab that will be seen only by you. Learn more ›
×
You can save this tab as Personal to edit and correct it or add notes. All changes will be seen only by you. Learn more »
launch autoscroll
font size
0
reset
how to read this tab
guitar tuner
edit
Autoscroll
slow
fast
+/-
esc
set tempo
stop
 Hola esta transcripción es con los arreglos del principio espero que les guste esta canción  
        

              Guit. 1                                                      Guit. 2
                                                                                                          
e|---------------------------------------------------|                |------12p13---|
B|---------------------------------------------------|                |--------------|
G|--------------------------------1h2p1-----1--------|                |--------------|     x2
D|---------------------4\2/4---4---------4-----4-----|                |--------------|
A|-------------4\2/4---------------------------------|                |--------------|
E|---2-- 2p02----------------------------------------|                |--------------|


A         E              D
No hay lugar que no busques
A         E            D
ser la estrella principal
A         E               D
holliwood queda solo en L.A
A        E            D
perdiste la humildad
D
para ser especial.

A
Y entre la gente
             E
sonriendo vas

cuanta anestesia 
           D
que te mandas

quedaste en cuatro 
         F#m
a la idiotez   

garganta profunda.

A         E
Cuando la excusa es solo glamour
      D
vas olvidando este lado al sur
       F#m
abrir los ojos de una vez

no estamos a oscuras.

A      E             D
Todo llega y así estas
A     E          D
mendigando por ahí

A         E                      D
nada entended siempre estas en otra.
A          E        
que te puedo decir:
D
podes ya no existir

A
Y la ignorancia 
              E
es tu perro fiel
                       D
cada minuto que te perdes
                       F#m
es un ladrillo en la pared

dejándote solo.
A                             E
Cuando la excusa es solo glamour
                            D
vas olvidando este lado al sur
                      F#m
abrir los ojos de una vez

no estamos a oscuras.

                     Guit. 1                                           Guit. 2
                                                                                                          
e|---------------------------------------------------|            |------12p13---|
B|---------------------------------------------------|            |--------------|
G|--------------------------------1h2p1-----1--------|            |--------------|      x2
D|---------------------4\2/4---4---------4-----4-----|            |--------------|
A|-------------4\2/4---------------------------------|            |--------------|
E|---2-- 2p02----------------------------------------|            |--------------|


                                                                                                   
A          E                    D
Nada entendes siempre estas en otra.
A          E        
que te puedo decir:
D
podes ya no existir.

A
Y entre la gente
           E
sonriendo vas           

cuanta anestesia
           D 
que te mandas

quedaste en cuatro
         F#m
a la idiotez
                
garganta profunda.
 A                             E
Cuando la excusa es solo glamour
                            D
vas olvidando este lado al sur
                      F#m
abrir los ojos de una vez

no estamos a oscuras

A         E
Ahh Casi nunca lo ves
      D
casi nunca lo ves
      F#m
casi nunca lo ves

Nunca
A         E         D
Ahh casi nuuuuunca lo ves
               F#m
casi nunca lo ves    [x2]


(se repite el requinto del principio pero solo una vez )


dudas mi correo es vegue6ncp@

            
            
Suggest correction
Creating personal tab
Creating personal tab
You can edit any tab online and save it as your Personal.

You can edit, replace or remove any tab part or add personal notes – all changes will be seen only by you.

Personal tabs can be accessed anytime from any device, even offline.
Learn more »
Give kudos to tab author, rate the tab!
1 2 3 4 5
comments
print report bad tab
guest
Wanna post a correction for this tab? Suggest correction