Oops, an error
Loading. Please wait.

Desigual chords

25 views 1 this week
no commentswrite comment
1 2 3 4 5
3 more votes to show rating
add to favorites
×
Save as Personal and add changes to this tab that will be seen only by you. Learn more ›
×
You can save this tab as Personal to edit and correct it or add notes. All changes will be seen only by you. Learn more »
launch autoscroll
font size
0
reset
transpose
0
reset
simplify chords
display chords
guitar tuner
edit
Autoscroll
slow
fast
+/-
esc
set tempo
stop
Strumming
There is no strumming pattern for this song yet. and get +5 IQ
Los Pericos - Desigual - Invitado Ciro Pertusi. Album Desde Cero.

Esta cancion tiene 2 guitarras, una que hace arreglos
(y tiene una bruta pedalera detras, dificil imitar los efectos
con una electroacustica)
y otra ritmica, trate de unir con las partes que se notan
mas de ambas, para sacar algo tocable en 1 sola viola.

Introduccion:
e|-----------------------------------|
B|-----------------------------------|
G|-----------5--3-----3--------------|
D|--3--5--7--------7-----3--3--5--5--|
A|-----------------------------------|
E|-----------------------------------|

e|--------------------|
B|--------------------|
G|-----------5--3---- |
D|--3--5--7--------7--|
A|--------------------|
E|--------------------| -->

*Unifico las 2 guitarras, y en vez de seguir con el punteo
(que sigue sonando debajo) arrancamos con esto :*

   D5     C5     F5
e|------------------------|
B|------------------------|
G|-7~-----5~-----9~~------|
D|-7~-----5~-----9~~------|
A|-5~-----3~-----7~~------|
E|------------------------|
*~ =Tocar 1 vez y dejar sonar*

              Desiguaaaal...
   D5    C5      F5
e|------------------------|
B|------------------------|
G|-7~-----5~-----9~~------|
D|-7~-----5~-----9~~------|
A|-5~-----3~-----7~~------|
E|------------------------|

   D#5    C#5     B5                           C5   D#5
e|-------------------------------------------------------|
B|-------------------------------------------------------|
G|-7~-----5~-----4-4--4-4-4--4-4-4--4-4-4-4-4--5-5--5-8--|
D|-7~-----5~-----4-4--4-4-4--4-4-4--4-4-4-4-4--5-5--5-8--|
A|-5~-----3~-----2-2--2-2-2--2-2-2--2-2-2-2-2--3-3--3-6--|
E|-------------------------------------------------------|


***Fin de la introduccion***

*Verso 1*
G5           A5
No me guardo ni me callo

F5                   Riff1 o C5
por mas que pueda ser peor

G5         A5
Nada quiero del infierno

   F5             Riff1 o C5
la vida puede ser mejor


*Verso 2 (la diferencia con el 1 es
el momento en el que toca los acordes)*

       G5            A5
No voy a morir por dejarme estar

      F5            Riff1 o C5
un minuto vivo vale mas.

       G5            A5
Tengo que seguir para no volver

      F5                 Riff1 o C5
a enredarme de nuevo esta vez.

*Riff1*
e|-------------------|
B|-------------------|
G|--5-5------5-5-----|
D|-------5-5-----5-5-|
A|-------------------|
E|-------------------|


*Estribillo (Se rasguea para abajo, seco, cada vez que
aparece el acorde, separando por silabas)*

B5 B5 B5 B5 B5 B5 B5  B5 B5  B5 B5 B5 B5 B5  C5  C5 C5 D#5
No ne-ce-si-to de-cir-te que to-do es de-si-gual de-si-gual


*Tocar como verso 1*
Saboteando en cada mente
ideologo superstar
Una carta diferente
y el mismo sentir demencial.

*Tocar como verso 2*
Un muñeco gris una mueca al fin
el veneno puede ser mortal.
Tengo que seguir para no volver
a enredarme de nuevo esta vez.

*Estribillo*
B5 B5 B5 B5 B5 B5 B5  B5 B5  B5 B5 B5 B5 B5  C5  C5 C5 D#5
No ne-ce-si-to de-cir-te que to-do es de-si-gual de-si-gual


*Punteo1*
e|-------------------------------------|
B|-------------------------------------|
G|-----------7--5-----5----------------|
D|--5--7--9--------9-----5--5--7--7----|
A|-------------------------------------|
E|-------------------------------------|

*Con ese punteo sonando, suena la otra guitarra, bajito:*

G5                F5         C5
Aguantas o te vas el silencio no
G5                F5         C5
Aguantas o te vas el silencio no
G5                F5         C5
Aguantas o te vas el silencio no

G5                                 F5                     C5
Tengo que seguir para no volver a enredarme de nuevo esta vez


*Punteo3 (x4)*
e|------------------------------------|
B|------------------------------------|
G|------------------------------------|
D|--2-----2/4-------------------------|
A|-----2----------4-----4/6-----------|
E|-------------------4----------------|


*Verso 1*
G5           A5
No me guardo ni me callo
F5                    Riff1 o C5
por mas que pueda ser peor
G5          A5
Nada quiero del infierno
   F5              Riff1 o C5
la vida puede ser mejor


*Verso 2*
       G5             A5
No voy a morir por dejarme estar
      F5             Riff1 o C5
un minuto vivo vale mas.
       G5             A5
Tengo que seguir para no volver
      F5                  Riff1 o C5
a enredarme de nuevo esta vez.

*Estribillo*
B5 B5 B5 B5 B5 B5 B5  B5 B5  B5 B5 B5 B5 B5  C5  C5 C5 D#5
No ne-ce-si-to de-cir-te que to-do es de-si-gual de-si-gual


*Punteo 1 (x2) (mientras suena G5 - F5 - C5)*
  Ahhhhhhhhhhhhhhhhhhh  Ahhhhhhh    Ahhhh
e|----------------------------------------|
B|----------------------------------------|
G|-----------7--5-----5-------------------|
D|--5--7--9--------9-----5--5--7--7-------|
A|----------------------------------------|
E|----------------------------------------|

  Ahhhhhhhhhhhhhhhhhhh  Ahhhhhhh    Ahhhh
e|----------------------------------------|
B|----------------------------------------|
G|-----------7--5-----5-------------------|
D|--5--7--9--------9-----5--5--7--7-------|
A|----------------------------------------|
E|----------------------------------------|


*Punteo 2 (tambien sonando G5 - F5 - C5)*
    Aguantaaaaaaaaaaaaaaaaaaaaaaaaaaaas
                          (o te vas....)
e|----------------------------------------|
B|----------------------------------------|
G|-----------10--9--7--5------------------|
D|--5--7--9---------------5--5--7--7------|
A|----------------------------------------|
E|----------------------------------------|
*sigue sonando punteo 2*

G5                                 F5                     C5
Tengo que seguir para no volver a enredarme de nuevo esta vez

G5                   F5         C5
Aguantas o te vas... el silencio no
(x3)

G5                                 F5                    C5
Tengo que seguir para no volver a enredarme de nuevo esta vez

G5                     F5    C5
No me guardo.... ni me callo, noooo
(x3)

G5                     F5     C5
No, no, no ..... ni me callo, noooo


Bueno.. en realidad habia entrado buscando la cancion Desde Cero,
Vi que desigual no estaba, y me colgue sacandola.. Espero guste..
Correcciones, comentarios opiniones bienvenidas :
elrubio_mauro@ Saludos!!

            
            
Suggest correction
Creating personal tab
Creating personal tab
You can edit any tab online and save it as your Personal.

You can edit, replace or remove any tab part or add personal notes – all changes will be seen only by you.

Personal tabs can be accessed anytime from any device, even offline.
Learn more »
Give kudos to tab author, rate the tab!
1 2 3 4 5
comments
print report bad tab
guest
Wanna post a correction for this tab? Suggest correction