Oops, an error
Loading. Please wait.

No Me Paren bass

59 views 1 this week
1 commentread comment
1 2 3 4 5
3 more votes to show rating
add to favorites
×
Save as Personal and add changes to this tab that will be seen only by you. Learn more ›
×
You can save this tab as Personal to edit and correct it or add notes. All changes will be seen only by you. Learn more »
launch autoscroll
font size
0
reset
guitar tuner
edit
Autoscroll
slow
fast
+/-
esc
set tempo
stop
Verso
G|---------------------------------------------------------------------|x2
D|---------------------------------33-66-------------------------------|
A|-5------55---------------------44-----44---22-55---55-------55-------|
E|--7-5-4---77-5-4--3-13-133-1333----------33-----33---77-5-4---77-5-4-|

Coro
G|------------------------------------|x2
D|------------------------------------|
A|---------------------------66-99----|
E|-5-3h4p5-3h4p5-3h4p5-3h5-77-----7-3-|

Verso
G|---------------------------------------------------------------------|x2
D|---------------------------------33-66-------------------------------|
A|-5------55---------------------44-----44---22-55---55-------55-------|
E|--7-5-4---77-5-4--3-13-133-1333----------33-----33---77-5-4---77-5-4-|

Coro
G|------------------------------------|x2
D|------------------------------------|
A|---------------------------66-99----|
E|-5-3h4p5-3h4p5-3h4p5-3h5-77-----7-3-|

Solo de Tompreta
G|---------------------------------------------------------------------|x2
D|---------------------------------33-66-------------------------------|
A|-5------55---------------------44-----44---22-55---55-------55-------|
E|--7-5-4---77-5-4--3-13-133-1333----------33-----33---77-5-4---77-5-4-|

Coro
G|------------------------------------|x4
D|------------------------------------|
A|---------------------------66-99----|
E|-5-3h4p5-3h4p5-3h4p5-3h5-77-----7-3-|

Solo de Bajo
G|-------------------------------------------------------44-66-77/-|
D|---------------------------------3-------------44-55-77----------|
A|-5-55-----------------------4-004-4-44-4--55-77------------------|
E|--7--7-54-554-30-330-32-332--------3--4-3------------------------|

Verso 2 ('Aunque a veces...')
G|----------------------------------------------------------------44-66-77/-|x4
D|--------------------------------------------------------44-55-77----------|
A|-5------55-----------------------4-0-44-0--4-3-44--55-77------------------|
E|--7-5-4---77-5-4--30-32-33-00-32-----------------3------------------------|

Final
G|----------------------------------------------|---|
D|----------------------------------------------|---|
A|-5------55------------------------(4)-----(5)-|-5-|
E|--7-5-4---77-5-4--30-32-33-00-32------(3)-----|---|

Escuchá la canción para saber el ritmo
Suggest correction
Creating personal tab
Creating personal tab
You can edit any tab online and save it as your Personal.

You can edit, replace or remove any tab part or add personal notes – all changes will be seen only by you.

Personal tabs can be accessed anytime from any device, even offline.
Learn more »
Give kudos to tab author, rate the tab!
1 2 3 4 5
comments
print report bad tab
1 comment total.
0 reply
cyver60 10 Jan 28, 2017 12:32 PM

por casualidad no tendrás la seción de metales en partitura gracias de antemano

guest
Wanna post a correction for this tab? Suggest correction