Oops, an error
Loading. Please wait.

Pupilas Ajenas Bass Tab

1,885 views 1 this week
no commentswrite comment
1 2 3 4 5
please rate
add to favorites
launch autoscroll
font size
0
reset
guitar tuner
Tab Pro tools
  • play this tab
  • loop segment
  • change instrument
  • show fretboard
  • metronome
Autoscroll
slow
fast
+/-
esc
set tempo
stop
Contributor
Difficulty
novice
Tabbed By : "Piojo_Loko"
e-mail: piojoxlokox80x@yahoo.es

Tuning: EADG

Intro 
G|---------------------------------------------------------------------|
D|---------------------------------------------------------------------|
A|-6-6--131313-----6----------6-----6-6-131313----6---11-8-6-6---------|
E|---------------88-6---8-8-10-6----------------88-6--------8---6-6\8--|

Versos
G|---------------------------------|
D|---------------------------------|
A|-6-6--131313-----6----------6----|
E|---------------88-6---8-8-10-6---|

Coros
G|---------------------------------|
D|---------------------------------|
A|--6-6-131313------------------6--|
E|---------------8---6-8-10-8-10-6-|

Solo
G|---------------------------------------------------|
D|---------------------------------------------------|
A|---------------------------------------------------|
E|---------------------------------------------------|

| /  slide up
| \  slide down
| h  hammer-on
| p  pull-off
| ~  vibrato
| +  harmonic
| x  Mute note
comments
We did not receive enough feedback on this tab! Please rate:
print report bad tab
1 2 3 4 5
I want to post or [tab]
guest
You may want to rate the tab now too:
select rating
Please do not post tabs as comments. Select "correction" instead!