Oops, an error
Loading. Please wait.

Alegria chords

7 views 1 this week
no commentswrite comment
1 2 3 4 5
3 more votes to show rating
add to favorites
×
Save as Personal and add changes to this tab that will be seen only by you. Learn more ›
×
You can save this tab as Personal to edit and correct it or add notes. All changes will be seen only by you. Learn more »
launch autoscroll
font size
0
reset
transpose
0
reset
display chords
guitar tuner
edit
Autoscroll
slow
fast
+/-
esc
set tempo
stop
Strumming Is this strumming pattern correct? Yes No
160 bpm
1
&
2
&
3
&
4
&
Listen
[Intro]
E
e|-4-4s7-2--2s4-------------------------------|
B|--------------5--4h5s7-4--------------------|
G|--------------------------4-4-4h6p4---------|
D|--------------------------------------------|
A|--------------------------------------------|
E|--------------------------------------------|

e|--------------------------------------------|
B|-2-4-5-7-5-4--542-542-----------------------|
G|--------------------------4-2--2-1----------|
D|-----------------------------------2--------|
A|--------------------------------------------|
E|--------------------------------------------|

[Verse]
E                                  F#m
Alegria, alegria, alegria a mi corazon
B                                                    
Tu no lo sabias que yo te queria 
                    E          
donde quiera que yo voy
E                                  F#m
Alegria, alegria, alegria a mi corazon
B                                                        
Siento que algun dia volveremos juntos 
                   E
de la mano y con amor

[Chorus]
        C#m   G#
No lo sabi-   a
                F#m   B
Que tu no me queri-   as
          C#m   G#
Todos los di-   as
         F#m   B
Que me deci-   as
           G#
Que me querias

[Verse]
E                                  F#m
Alegria, alegria, alegria a mi corazon
B                                                         
Ya ha pasado un tiempo y en este momento
                 E
yo te pido por favor
E                                  F#m
Alegria, alegria, alegria a tu corazon (amor amor)                                          
B                                                          
Mirame a los ojos mira si te miento 
                        E
que te quiero a ti mi amor

[Chorus]
        C#m   G#
No lo sabi-   a
                F#m   B
Que tu no me queri-   as
          C#m   G#
Todos los di-   as
         F#m   B
Que me deci-   as
           G#
Que me querias

[Solo]
Guitar 1              
e|--------------------------------------------|
B|------------------------5-4-2---------------|
G|---6-4-4--2p1h2---------------4-2-----------|
D|-6--------------------------------6-4-6-----|
A|--------------------------------------------|
E|--------------------------------------------|

e|--------------------------------------------|
B|--------------------------------------------|
G|---4-4--2-2---------------------------------|
D|-6----------------------2-4-6-6-------------|
A|--------------------------------------------|
E|--------------------------------------------|

e|-------------------0------------------------|
B|-------------------0------------------------|
G|---6-4-4--2p1h2----6----7-6-4---------------|
D|-6-----------------7----------7-6-4-6-7-----|
A|-----------------7-7------------------------|
E|--------------------------------------------|
                       
Guitar 2                                
e|---9-7-7--5p4h5----2-5--5-4-2---------------|
B|-9----------------------------5-4-2---------|
G|------------------------------------4-2-----|
D|--------------------------------------------|
A|--------------------------------------------|
E|--------------------------------------------|

e|---7-7--5-5---------------------------------|
B|-9----------------------5-7-9-9-------------|
G|--------------------------------------------|
D|--------------------------------------------|
A|--------------------------------------------|
E|--------------------------------------------|

e|---9-7-7--5p4h5----5----5-4-2---------------|
B|-9-----------------5----------5-4-2-4-5-----|
G|-------------------6------------------------|
D|--------------------------------------------|
A|--------------------------------------------|
E|--------------------------------------------|

Guitar 3
F#m A F#m E

[Verse]
E                                  F#m
Alegria, alegria, alegria a mi corazon
B
Tantas veces pienso cuantos lindos dias
                  E
que pasamos con amor 
E                                  F#m
Alegria, alegria, alegria a tu corazon (amor amor) 
B                                                    
Tu no lo sabias que yo te queria 
                    E
donde quiera que yo voy (amor, amor amor)

[Chorus]
        C#m   G#
No lo sabi-   a
                F#m   B
Que tu no me queri-   as
          C#m   G#
Todos los di-   as
         F#m   B
Que me deci-   as

       C#m   G#
No lo sabi-   a
                F#m   B
Que tu no me queri-   as
          C#m   G#
Todos los di-   as
         F#m   B
Que me deci-   as
          G#
Que me querias
Suggest correction
Creating personal tab
Creating personal tab
You can edit any tab online and save it as your Personal.

You can edit, replace or remove any tab part or add personal notes – all changes will be seen only by you.

Personal tabs can be accessed anytime from any device, even offline.
Learn more »
Give kudos to tab author, rate the tab!
1 2 3 4 5
comments
print report bad tab
guest
You may want to rate the tab now too:
select rating
Wanna post a correction for this tab? Suggest correction