Oops, an error
Loading. Please wait.

Angelito Live chords

version 2
version 2

Whole song

  • Los piojos - 05 Angelito - Ritual (1999) vivo - No... Show more
10 views 3 this week
no commentswrite comment
1 2 3 4 5
2 more votes to show rating
add to favorites
×
Save as Personal and add changes to this tab that will be seen only by you. Learn more ›
×
You can save this tab as Personal to edit and correct it or add notes. All changes will be seen only by you. Learn more »
launch autoscroll
font size
0
reset
transpose
0
reset
simplify chords
display chords
guitar tuner
edit
Autoscroll
slow
fast
+/-
esc
set tempo
stop
Strumming
There is no strumming pattern for this song yet. and get +5 IQ
No Capo

[Chords]
   A   F   G   C   E   D                                      
e|-5---1---3---8---0---2--|
B|-5---1---3---8---0---3--|
G|-6---2---4---9---2---2--|
D|-7---3---5--10---3---0--|
A|-7---3---5--10---3---x--|
E|-5---1---3---8---0---x--|


[Intro]
   E5    E5    E5 G5 F#5 E5    E5    E5 G5 B5  C    
e|------------------------------------------------|
B|------------------------------------------------|
G|---------------------------------------------9--|
D|-2-----2-----2--2--1---2-----2-----2--5--9--10--|
A|-2-----2-----2--2--1---2-----2-----2--5--9--10--|
E|-0-----0-----0--3--2---0-----0-----0--3--7---8--| x 4

[Verse]
 A
Harto del viejo borracho 
     F
Angelito camina por la calle
A
Angel caído va, 
F
Angel caído y sin talle
A
Una revancha quizá 
F
A lo que no pudo ser
  A
Bronca que raja al espalda y
 F
Se está haciendo tarde y 
   G                A
Parece que va a llover.

[Hook]
   E5    E5    E5 G5 F#5 E5    E5    E5 G5 B5  C    
e|------------------------------------------------|
B|------------------------------------------------|
G|---------------------------------------------9--|
D|-2-----2-----2--2--1---2-----2-----2--5--9--10--|
A|-2-----2-----2--2--1---2-----2-----2--5--9--10--|
E|-0-----0-----0--3--2---0-----0-----0--3--7---8--| x 2

[Verse]
 A
Harto del viejo borracho 
     F
Angelito camina por la calle
A 
Un poco por caminar 
F
Y mucho por olvidarse
A
Angel caído va 
F
A lo que no pudo ser
 A
Tirando de una esperanza y
      F
Se está haciendo tarde
     G                A
y parece que va a llover.

[Refrain]
 G     F      E          D
Voy a caminar, voy a descender 
G      F       E       D
El subte tomar, y después veré
 G       F       E         D
Hacia aquel lugar, no quiero volver 
  G    F       E      D  D C
Puedo conversar con una pared...

[Hook]
   E5    E5    E5 G5 F#5 E5    E5    E5 G5 B5  C    
e|------------------------------------------------|
B|------------------------------------------------|
G|---------------------------------------------9--|
D|-2-----2-----2--2--1---2-----2-----2--5--9--10--|
A|-2-----2-----2--2--1---2-----2-----2--5--9--10--|
E|-0-----0-----0--3--2---0-----0-----0--3--7---8--| x 2

[Verse]
 A
Subido al límite del 
 F
Viejo edificio
     A
Angelito sonríe y se excita
       F
De pensar en caer
  A
Caer caer, 
 F
Borde del atardecer
 A
Todo por un precipicio, 
      F           
Se está haciando tarde y 
   G                A
Parece que va a llover.

[Refrain]
 G     F      E          D
Voy a caminar, voy a descender 
G      F       E       D
El subte tomar, y después veré
 G       F       E         D
Hacia aquel lugar, no quiero volver 
  G    F       E      D  D C
Puedo conversar con una pared...

[Outro]
   E5    E5    E5 G5 F#5 E5    E5    E5 G5 B5  C    
e|------------------------------------------------|
B|------------------------------------------------|
G|---------------------------------------------9--|
D|-2-----2-----2--2--1---2-----2-----2--5--9--10--|
A|-2-----2-----2--2--1---2-----2-----2--5--9--10--|
E|-0-----0-----0--3--2---0-----0-----0--3--7---8--| x 10
Suggest correction
Creating personal tab
Creating personal tab
You can edit any tab online and save it as your Personal.

You can edit, replace or remove any tab part or add personal notes – all changes will be seen only by you.

Personal tabs can be accessed anytime from any device, even offline.
Learn more »
Give kudos to tab author, rate the tab!
1 2 3 4 5
comments
print report bad tab
guest
You may want to rate the tab now too:
select rating
Wanna post a correction for this tab? Suggest correction