Oops, an error
Loading. Please wait.

Manise tab

41 views 1 this week
no commentswrite comment
1 2 3 4 5
3 more votes to show rating
add to favorites
×
Save as Personal and add changes to this tab that will be seen only by you. Learn more ›
×
You can save this tab as Personal to edit and correct it or add notes. All changes will be seen only by you. Learn more »
launch autoscroll
font size
0
reset
how to read this tab
guitar tuner
edit
Autoscroll
slow
fast
+/-
esc
set tempo
stop
(Bateria)

Intro:
Guitarra 1:
         E               D
e|----------------|----------------|--||
b|----------------|----------------|--||
g|----------------|----------------|--||
d|--------9-7-6---|----------------|x4||
a|-7-7--7-------7-|-5-5----5--4-5--|--||
E|----------------|----------------|--||
Guitarra 2:
         E                 D
e|----------------|----------------|--||
b|----------------|----------------|--||
g|-9-9--9-9-9-9-9-|-7-7--7-7-7-7-7-|--||
d|-9-9--9-9-9-9-9-|-7-7--7-7-7-7-7-|x4||
a|-7-7--7-7-7-7-7-|-5-5--5-5-5-5-5-|--||
E|----------------|----------------|--||
Bajo:
         E                 D
g|----------------|----------------|--||
d|-2-2-2------2---|-0-0-0-------0--|--||
a|---------2------|----------0-----|x4||
E|----------------|----------------|--||

Estrofa 1:

Guitarra 1:
   E       D
e|-0-----|-2-----|--||
b|-0-----|-3-----|--||
g|-1-----|-2-----|--||
d|-2-----|-0-----|x8||
a|-2-----|-------|--||
E|-0-----|-------|--||
Bajo:
      E           D
g|-----------|------------|--||
d|-2-2-2---2-|-0-0-0---0--|--||
a|-------2---|-------0----|x8||
E|-----------|------------|--||

E                             D
Bajo el puente helado del olvido
E                             D
había queda'o varado triste mi corazón
E                           D
Lastimado de amores sin sentido
E                            D
que no cantaban juntos ni un verso de canción
E                             D
Resoplando dormido en el encierro
E                             D
bajo los grises fierros del puente de hormigón
E                             D
Y soñando con lo que no esperaba
E                             D
con lo que no pasaba y con lo que no pasó

Puente:

Guitarras:
(Slides)

Bajo:
(Con Picking)
Riff:
     E
g|-------------|--||
d|-------------|--||
a|-------------|x4||
E|-0-0-0-0-0---|--||
PC..............

E
Y ahora me deja (Riff)
E
y ahora me dice (Riff)
E
Yo la ví fuerte (Riff)
E
le di manise! (Riff)

INTRO

Estrofa 2:

Guitarra 1:
   E       D
e|-0-----|-2-----|--||
b|-0-----|-3-----|--||
g|-1-----|-2-----|--||
d|-2-----|-0-0---|x8||
a|-2-----|----4-2|--||
E|-0-----|-------|--||
Guitarra 2:
(MUY apagado, suena como un slap bass)
        E                D
e|---------------|--------------|--||
b|---------------|--------------|--||
g|---------------|--------------|--||
d|---------------|--------------|x4||
a|7x7x7x7x7x7---7|-5x5x5x5x---5-|--||
E|------------7--|----------5---|--||
Bajo:
      E           D
g|-----------|------------|--||
d|-2-2-2---2-|-0-0-0---0--|--||
a|-------2---|-------0----|x4||
E|-----------|------------|--||

E                     D
Era la noche, justa, inevitable
E                     D
eran tus botas llamando mi atención
E                       D
Era la bruma, las lámparas de luna
E                       D
el humo dando vueltas, tu curva sin razón
E                   D
Era la noche, era tu presencia
E                     D
era mi deseo y nuestra desolación
E                    D
Era el espejo quebrándose en tus ojos
E                  D
y desde lejos, llegando a tu canción

Estribillo:
(Igual)

Y ahora me deja
y ahora te dice
yo la vi fuerte
le di manise!

Y ahora te deja
Y ahora te dice
LA viste fuerte
diste manise!!

Estrofa 3:
(Igual a estrofa 2)
Y ahora estoy pelandoló
Y ahora estoy pelandoló
Y ahora estás pelandoló
Y ahora estoy pelandoló

(Intro)

Estrofa 4:
(Solo percusion)

Entregada la viste a la mocosa
le enseño alguna cosa y le doy para comer
y la vida, la vida que es tramposa
agarró a tu mocosa y te la hizo mujer
Ahora vivo, vivo como un exclavo
pensando que echás mano de lo que enseñé
Entregada la viste a la mocosa
le enseño alguna cosa y le doy para comer

INTRO

Estrofa 5:
(Igual a Estrofa 2 y 3)
Y ahora estoy pelándolo
y ahora estoy pelándolo...
Y ahora estás pelándolo
y ahora estás pelándolo...

Y AHORA ME DEJA!

            
            
Suggest correction
Creating personal tab
Creating personal tab
You can edit any tab online and save it as your Personal.

You can edit, replace or remove any tab part or add personal notes – all changes will be seen only by you.

Personal tabs can be accessed anytime from any device, even offline.
Learn more »
Give kudos to tab author, rate the tab!
1 2 3 4 5
comments
print report bad tab
guest
Wanna post a correction for this tab? Suggest correction