Oops, an error
Loading. Please wait.

Muy Despacito chords

version 2
version 2

Whole song

  • Los piojos - muy despacito (acustico music21 '95) ... Show more
  • Los piojos - muy despacito - No Capo - https://www... Show more
73 views 6 this week
no commentswrite comment
1 2 3 4 5
x 5
add to favorites
×
Save as Personal and add changes to this tab that will be seen only by you. Learn more ›
×
You can save this tab as Personal to edit and correct it or add notes. All changes will be seen only by you. Learn more »
launch autoscroll
font size
0
reset
transpose
0
reset
simplify chords
display chords
guitar tuner
edit
Autoscroll
slow
fast
+/-
esc
set tempo
stop
Strumming
There is no strumming pattern for this song yet. and get +5 IQ
A7sus4  x00030

[Intro]
e|-----2--------2-------2-----2---2-----3-------3-------|
B|-------3--------3-------3---------------2-------2-----|
G|---2-------2--------2---------------3-------3---------|
D|-0-------4--------0-------4---3---0-------4-----------|
A|------------------------------------------------------|
E|------------------------------------------------------|

e|------5-------5--------2-------2-------2--------2-----|
B|--------3-------3--------3-------3-------3--------3---|
G|---4--------4-------2--------2-------2-----0p2------2-|
D|-5--------5-------0--------4-------0------------------|
A|------------------------------------------------------|
E|------------------------------------------------------|

e|-----1-------3----1/3--3---2--2--3--2-----------------|
B|---------------3--1/3--3---3--3-----------------------|
G|---2---2---2------2/4--4---2--2-----------------------|
D|-3-------3-------------5---0--0-----------------------|
A|-----------------------5------------------------------|
E|-----------------------3------------------------------|


[Verse]
D
  Jardines de calma feroz, 
Am7
  un sol de infinita paciencia 
C                                  D     Dsus4 
  los locos cantan la canción y aplauden 
D
  Se acercan de a uno, de a dos, 
Am
  se va formando la ronda 
C
  una enfermera tetona 
                  D           Dsus4
  imita a una estrella de rock
D
  se ríen y del paredón 
Am
  el eco aplaude contento 
C
  y el viejo dice que está bien, 
          D     Dsus4
  vamos adentro 
D
  Andrés vení por favor, 
Am
  acompañame un poquito, 
       C                    D  Dsus4
  dice uno, sólo dame la mano 

[Chorus]
Am
  Muy despacito, 
C                       D  A7sus4 D
  sobre el abismo, volaré... 

[Verse]
D
  Jardines de calma feroz, 
Am
  un sol de infinita paciencia 
C                                  D     Dsus4 
  los locos cantan la canción y aplauden 
D
  Se acercan de a uno, de a dos, 
Am
  se va formando la ronda 
C
  una enfermera gritona
                  D           Dsus4
  imita a una estrella de rock
D
  se acercan y del paredón 
Am
  el eco aplaude contento 
C
  y el viejo dice que está bien, 
          D     Dsus4
  vamos adentro 
D
  Andrés vení por favor, 
Am
  acompañame un poquito, 
       C                    D  Dsus4
  dice uno, sólo dame la mano 

[Chorus]
Am
  Muy despacito, 
C                       D  Dsus4 D
  sobre el abismo, volaré... 
Am
  Muy despacito, 
C                       D  Dsus4 D
  sobre el abismo, volaré... 
Am             C                  D  Dsus4 D    
  abajo el sol, abajo el sol, yo ver
Am             C                  D    
  abajo el sol, abajo el sol, llover

[Interlude]
F   G    D    Dsus4 D  
F   G    D    Dsus4 D 
D   Am   C    D     Dsus4
D   Am   C    D     Dsus4

    D             D
OhhhOhhhOhhh OhhooOhhh
    Am            Am
OhhhOhhhOhhh OhhooOhhh
    C             C
OhhhOhhhOhhh OhhooOhhh
    D         D    Dsus4 D
AyayAyayayayayAyyyy  
    D             D
OhhhOhhhOhhh OhhooOhhh
    Am            Am
OhhhOhhhOhhh OhhooOhhh
    C             C
OhhhOhhhOhhh OhhooOhhh
    D         D    Dsus4 D
AyayAyayayayayAyyyy  

[Outro]
F          G          D    Dsus4 D  
 Muy despacito,  volare
F           G           D    Dsus4 D  
 Sobre el avismo,  volare
F          G          D    Dsus4 D  
 Muy despacito,  volare
F           G           D    Dsus4 D  
 Sobre el avismo,  volare
F   G    D 

            
            
Suggest correction
Creating personal tab
Creating personal tab
You can edit any tab online and save it as your Personal.

You can edit, replace or remove any tab part or add personal notes – all changes will be seen only by you.

Personal tabs can be accessed anytime from any device, even offline.
Learn more »
comments
print report bad tab
guest
You may want to rate the tab now too:
select rating
Wanna post a correction for this tab? Suggest correction