Oops, an error
Loading. Please wait.

Mr. Wah Wah tab

20 views 1 this week
no commentswrite comment
1 2 3 4 5
3 more votes to show rating
add to favorites
×
Save as Personal and add changes to this tab that will be seen only by you. Learn more ›
×
You can save this tab as Personal to edit and correct it or add notes. All changes will be seen only by you. Learn more »
launch autoscroll
font size
0
reset
how to read this tab
guitar tuner
edit
Autoscroll
slow
fast
+/-
esc
set tempo
stop
Nota: Esta es mi primera trascripción. Si no se entiende
demasiado haced un esfuerzo de imaginación (sobretodo en la
intro). ¡A disfrutar que es una pedazo de canción!

INTRO: [G / Bm / C]

E|-|-------15-12--------------------------------------------|-|
B|-|--15bb-------14-12--------------------------------------|-|
G|-|--14bb-------------14-12----16-16-14--------------------|-|
D|-|--------------------------------------------------------|-|
A|-|--------------------------------------------------------|-|
e|-|--------------------------------------------------------|-|

E|-|--------------------------------------------------------|-|
B|-|--------------------------------------------------------|-|
G|-|--12-12----------12-------------------------------------|-|
D|-|--------14-12-14----14----12----------------------------|-|
A|-|-----------------------------14-12-10----10-12h14-14-12-|-|
e|-|--------------------------------------12----------------|-|


E|-|--------------------------------------------------------|-|
B|-|--12121212------------------------1212-13h15//---12-----|-|
G|-|-----------14-12----12----------------------------------|-|
D|-|-----------------14----14-------------------------------|-|
A|-|--------------------------------------------------------|-|
e|-|--------------------------------------------------------|-|


E|-|--------------------------------------------------------|-|
B|-|--------------------------------------------------------|-|
G|-|------12-------------------12---------------------------|-|
D|-|---14----14p12-10----12h14------------------------------|-|
A|-|------------------12------------------------------------|-|
e|-|--------------------------------------------------------|-|


    G              Bm            C
Qué pasa si cuando duermes te despierto
    G              Bm            C
dime qué pasa si te atropello y no estás muerto
    G              Bm            C
Mr. Wah Wah sí sabrá muy bien qué contestar
         G    Bm             C
dime qué pasa si ahora estás solo.


     Am          D         G          Em
Y me notas a tu lado, y me buscas ahí detrás
      Am                    D
yo no te encontré, fue casualidad
G                           Em
todo el mundo debería tener otra oportunidad
Am                D           C      D
Mr. Wah Wah ya lo sabe.


     A             Bm            D       E
Mr. Wah Wah ya no sabe si estás muerto
     A             Bm       D      E
Mr. Wah Wah continua su paseo
      A                   Bm             D           E
yo no te encontré, fue casualidad, fue casualidad
      A     Bm       D          E
Mr. Wah Wah sigue contento.


[Solo parecido al de la intro. G / Bm / C]


[G / Bm / C]
Quién te hizo así major
no me das pena no, a mi también me gusta llorar
Mr. Wah Wah se fue y nunca volvió
porqué sí sí sí sí, me gusta sí.


[Am / D / G / Em]
Y no tienes más remedio que esconder tu alma rota
yo no te encontré, fue casualidad
deja de apuntarme con el dedo
  Am              D     C          D
Mr. Wah Wah ya lo sabe (Mr. Wah Wah ya lo sabe).


[A / Bm / D / E]
Mr. Wah Wah ya no toma decisiones
Mr. Wah Wah ya no ofrece confesiones
yo no te encontré, fue casualidad, fue casualidad
Mr. Wah Wah Wah Wah sigue contento.
Mr. Wah Wah ya no sabe si estás muerto
Mr. Wah Wah continua su paseo
yo no te encontré, fue casualidad, fue casualidad
yo no te encontré, fue casualidad, fue casualidad
yo no te encontré, fue casualidad, fue casualidad
yo no te encontré, fue casualidad, fue casualidad
Mr. Wah Waaaaaaaaaaaaaaaaaahhhhhh
Mr. Wah Waaaaaaaaaaaaaaaaaahhhhhh
Ooooohhh, Mr. Wah Waaaaaaaaaaaaaaaaaahhhhhh
Mr. Wah Wah sí, Mr. Wah Wah sí, sigue contento.


TRANSCRIPCIÓN: Rubén Sánchez (uoho7)

            
            
Suggest correction
Creating personal tab
Creating personal tab
You can edit any tab online and save it as your Personal.

You can edit, replace or remove any tab part or add personal notes – all changes will be seen only by you.

Personal tabs can be accessed anytime from any device, even offline.
Learn more »
Give kudos to tab author, rate the tab!
1 2 3 4 5
comments
print report bad tab
guest
Wanna post a correction for this tab? Suggest correction