Oops, an error
Loading. Please wait.

Desaparecer tab

243 views 3 this week
no commentswrite comment
1 2 3 4 5
3 more votes to show rating
add to favorites
×
Save as Personal and add changes to this tab that will be seen only by you. Learn more ›
×
You can save this tab as Personal to edit and correct it or add notes. All changes will be seen only by you. Learn more »
launch autoscroll
font size
0
reset
how to read this tab
guitar tuner
edit
Autoscroll
slow
fast
+/-
esc
set tempo
stop
NOTACION

p= pull off
s= slide
>= mantener el sonido
¡= rasguear de arriba a abajo
!= rasguear de abajo a arriba

------------------------------------------------------------
------------------------------------------------------------

AFINACION

Normal (standar)

------------------------------------------------------------
------------------------------------------------------------


-----
INTRO
-----


1)


Guitarra 1 [Con efectos]
----------

--------
--------
--------
--------
--------
--12s0--

--------------------------
--------------------------
-------------------------- (x3)
--------------------------
--------------------------
--0--0--0--0--0--0--0--0--

-----------------0--0-----------------0--
-----------------------------------------
----------------------------------------- (x4)
-----------------------------------------
-----------------------------------------
--0--0--0--0--0--------0--0--0--0--0-----


Guitarra 2
----------

--0--0--0--0--0--0--
--1--1--3--3--3--1--
--0--0--0--0--0--0-- (x4)
--2--2--2--2--2--2--
--3--3--3--3--3--3--
--------------------
  ¡  ¡  !  !  ¡  !


--0--0--0--0--0--0--
--0--0--3--3--3--0--
--0--0--0--0--0--0-- (x4)
--2--2--2--2--2--2--
--2--2--2--2--2--2--
--0--0--0--0--0--0--
  ¡  ¡  !  !  ¡  !


2)


Guitarra 1
----------

--12--12--12--12--12--12--12--12--
--13--13--13--13--13--13--13--13--
---------------------------------- (x4)
----------------------------------
----------------------------------
----------------------------------

--12--12--12--12--12--12--12--12--
--12--12--12--12--12--12--12--12--
---------------------------------- (x4)
----------------------------------
----------------------------------
----------------------------------

---------
---------
--12s21--
---------
---------
---------

----------------------------------
----------------------------------
--21--21--21--21--21--21--21--21-- (tocar muchas veces)      
----------------------------------
----------------------------------
----------------------------------


Guitarra 2
----------

Tocar lo mismo que la guitarra 2 en la parte 1) de la Intro    


-------
VERSO 1
-------


--0--0--0--0-----0--------0-----
--5--5--5--5--3--------3--------
--------------------2--------2--
--------------------------------
--------------------------------
--------------------------------
Cuando ya no puedas...


--0--0--0--0-----0--------0--------
--5--5--5--5--------3--------3-----
--------------2--------2--------2--
-----------------------------------
-----------------------------------
-----------------------------------
...mantenerte en pie...


--0--0--0--0--------0-----0--------
--5--5--5--5-----3-----------3-----
--------------2--------2--------2--
-----------------------------------
-----------------------------------
-----------------------------------
...y ya no te quede...


--0--0--0--0-----0--------0--------
--5--5--5--5--------3--------3-----
--------------2--------2--------2--
-----------------------------------
-----------------------------------
-----------------------------------
...nada por beber


--------
CHORUS 1 (Y tengas que volver...)
--------


Tocar lo mismo que en la parte 2) de la Intro 


-------
VERSO 2 (Esta vez nadie te va a preguntar...)
-------


Tocar lo mismo que en Verso 1


--------
CHORUS 2
--------


Tocar lo mismo que en la parte 2) de la Intro


-----------
POST-CHORUS
-----------


1) (Si te esfuerzas puedes desaparecer...) (x2)


Guitarra 1
----------

--0--0--0--0--0-----0-----------
--5--5--5--5-----3-----3-----3--
--------------------------4-----
--------------------------------
--------------------------------
--------------------------------

--0--0--0--0--------------------
--5--5--5--5-----3-----3-----3--
--------------4-----4-----4-----
--------------------------------
--------------------------------
--------------------------------


Guitarra 2
----------

--0--0--0--0--0--0--0--0--0--0--
--1--1--1--1--0--3--0--3--0--3--
--0--0--0--0--0--0--0--0--0--0--
--2--2--2--2--2--2--2--2--2--2--
--3--3--3--3--2--2--2--2--2--2--
--------------0--0--0--0--0--0--

--0--0--0--0--0--0--0--0--0--0--
--1--1--1--1--3--0--0--3--0--0--
--0--0--0--0--0--0--0--0--0--0--
--2--2--2--2--2--2--2--2--2--2--
--3--3--3--3--2--2--2--2--2--2--
--------------0--0--0--0--0--0--


2) (Si te esfuerzas puedes desaparecer...)


Guitarra 1
----------

Tocar lo mismo que en Verso 1


Guitarra 2 (x2)
----------

--0--0--0--0--3--0--0--3--0--0--
--1--1--1--1--0--0--0--0--0--0--
--0--0--0--0--0--0--0--0--0--0--
--2--2--2--2--0--0--0--0--0--0--
--3--3--3--3--2--2--2--2--2--2--
--------------3--3--3--3--3--3--

--0--0--0--0--2--2--2--3--2--2--
--0--0--0--0--3--3--3--3--3--3--
--0--0--0--0--2--2--2--2--2--2--
--2--2--2--2--0--0--0--0--0--0--
--2--2--2--2--------------------
--0--0--0--0--------------------


3)  (Y SI vas A volver...)


Tocar lo mismo que en Intro


-----
FINAL
-----


Guitarra 1 [Con efectos]
----------

Aquí Florent utiliza un delay junto a otros efectos.
No tengo ni idea de a que velocidad hay que programar el
delay ni que otros efectos utiliza.

En esta parte de la canción suena esto continuamente:

--0s12>--0s12>--0s12>--0s12>--0s12>--0s12>--
--------------------------------------------
-------------------------------------------- etc...
--------------------------------------------
--------------------------------------------
--------------------------------------------

A veces Florent toca esta ligera variación:

--0s12>s8>--
------------
------------
------------
------------
------------

Y en un momento dado toca esto [Minutaje del CD= 3:45/3:51]:

--0s12>--0s13>--0s14>--0s15>--0s16>--0s17>--0s18>--0s19>s0--
------------------------------------------------------------
------------------------------------------------------------
------------------------------------------------------------
------------------------------------------------------------
------------------------------------------------------------


Guitarra 2
----------

Tocar lo mismo que la guitarra 2 en la parte 1) de la Intro


Guitarra 3 [Arreglo de teclado para guitarra]
----------


A) [Minutaje del CD= 3:13/3:18]


----------------
--11p10--8--10--
---------------- (x3)
----------------
----------------
----------------

--------------------
--11p10--8--10--11--
-------------------- 
--------------------
--------------------
--------------------


B) [Minutaje del CD= 3:19/3:29]


------------------10--------------
--10--12--13--10------13--12--13--
---------------------------------- (x2)
----------------------------------
----------------------------------
----------------------------------

--18--17--15--17--
------------------
------------------ (x3)
------------------
------------------
------------------

--18--17--15--17--15--
----------------------
----------------------
----------------------
----------------------
----------------------


C) [Minutaje del CD= 3:30/3:40]


------------------10--------------
--10--12--13--10------13--12--13--
---------------------------------- (x2)
----------------------------------
----------------------------------
----------------------------------

--12--10--------------10--11--10--
----------13--12--13--------------
---------------------------------- (x2)
----------------------------------
----------------------------------
----------------------------------


D) [Minutaje del CD= 3:40/3:51]


--17--17--17--17--17--17--17--17--
----------------------------------
---------------------------------- (x2)
----------------------------------
----------------------------------
----------------------------------

----------------------------------
--13--13--13--13--13--13--13--13--
---------------------------------- (x2)
----------------------------------
----------------------------------
----------------------------------

--18--17--15--17--
------------------
------------------ (x3)
------------------
------------------
------------------

--18--17--15--17--15--
----------------------
----------------------
----------------------
----------------------
----------------------


E) [Minutaje del CD= 3:52/3:57]


----------------------------------
--13--13--13--13--13--13--13--13--
---------------------------------- (x2)
----------------------------------
----------------------------------
----------------------------------

----------10------------------
--12--13------13--12--13--12--
------------------------------
------------------------------
------------------------------
------------------------------


F) [Minutaje del CD= 3:58/4:03]


--12--10--
----------
----------
----------
----------
----------

--12--10--------------10--
----------13--12--13------
-------------------------- (x4)
--------------------------
--------------------------
--------------------------


------------------------------------------------------------
------------------------------------------------------------


-----------
DESAPARECER
-----------


--------------------
FORMACION DE ACORDES

C     (x32010)
C9    (x32030)
D     (xx0232)
Dsus4 (xx0233)
Em    (022000)
Em7   (022030)
G     (320003)
Gsus  (320000)
--------------------


---------------------------------------
PROGRESION DE ACORDES

Progresión en G (P-G)= G  Gsus  G  Gsus
---------------------------------------


-----
INTRO (x2)
-----


C  C9  C  C9  C  C9  C  C9


Em  Em7  Em  Em7  Em  Em7  Em  Em7


-------
VERSO 1
-------


C


       P-G          Em          D  Dsus4  D  C
Cuando no te puedas mantener en pie

     P-G         Em         D  Dsus4  D
Y ya no te quede nada por beber


--------
CHORUS 1
--------


C  C9


C        C9     C  C9
Y tengas que volver 

C        C9     Em
Y tengas que volver  

Em7      Em    Em7      Em   
Y tienes tanto que explicar 

Em7   Em   Em7      C  C9
yo no te pienso escuchar 


C      C9        C  C9
Y no sepas que hacer

C      C9        Em
Y no sepas que hacer 

Em7      Em     Em7   Em
Y lo que tienes que decir 

Em7     Em     Em7    C   
es algo que no quiero oir


----------------------------------
C  C9  C  C9  C  C9  C  C9                            
                                    (x2)
Em  Em7  Em  Em7  Em  Em7  Em  Em7
----------------------------------


-------
VERSO 2
-------


C


     P-G       Em            D  Dsus4  D  C
Esta vez nadie te va a preguntar 

             P-G      Em         D  Dsus4  D
Porque no aguantaría una mentira más 


--------
CHORUS 2
--------


C  C9


C        C9     C    C9
Y si piensas volver 

C        C9     Em
y si piensas volver 

Em7          Em     Em7  Em
Si lo has pensado alguna vez

Em7          Em     Em7     C  C9
Piensa que entonces yo no esté 


C         C9    C   C9
Y que vas a ofrecer 

C         C9    Em
Y que vas a ofrecer 

Em7       Em    Em7     Em  
Si lo que antes te sirvió 

Em7      Em    Em7   C
No tiene ya ningún valor


----------------------------------
C  C9  C  C9  C  C9  C  C9                            
                                    (x2)
Em  Em7  Em  Em7  Em  Em7  Em  Em7
----------------------------------


-----------
POST-CHORUS
-----------


C


        Em  Em7 Em Em7  Em  Em7  C
Si te esfuerzas puedes 

    Em7  Em   Em7  Em  C
Desapa-  REm  cer 

        Em  Em7 Em Em7  Em  Em7  C
Si te esfuerzas puedes 

    Em7  Em   Em7  Em  C
Desapa-  REm  cer 


        P-G
Si te esfuerzas puedes 

Em      D  Dsus4  D  C
Desaparecer 

        P-G
Si te esfuerzas puedes 

Em      D  Dsus4  D
Desaparecer 


-----
FINAL
-----


C  C9


C        C9   C    C9
Y si vas a volver

C        C9   Em   Em7  Em  Em7  Em  Em7  Em  Em7  C  C9  
Y si vas a volver 

C        C9   C  C9
Y si vas a volver 

C        C9   Em   Em7  Em  Em7  Em  Em7  Em  Em7
Y si vas a volver 


----------------------------------
C  C9  C  C9  C  C9  C  C9                            
                                    (x?)
Em  Em7  Em  Em7  Em  Em7  Em  Em7
----------------------------------


------------------------------------------------------------
------------------------------------------------------------

            
            
Suggest correction
Creating personal tab
Creating personal tab
You can edit any tab online and save it as your Personal.

You can edit, replace or remove any tab part or add personal notes – all changes will be seen only by you.

Personal tabs can be accessed anytime from any device, even offline.
Learn more »
Give kudos to tab author, rate the tab!
1 2 3 4 5
comments
print report bad tab
guest
Wanna post a correction for this tab? Suggest correction