Oops, an error
Loading. Please wait.

Cielo tab

25 views 1 this week
no commentswrite comment
1 2 3 4 5
3 more votes to show rating
add to favorites
×
Save as Personal and add changes to this tab that will be seen only by you. Learn more ›
×
You can save this tab as Personal to edit and correct it or add notes. All changes will be seen only by you. Learn more »
launch autoscroll
font size
0
reset
how to read this tab
guitar tuner
edit
Autoscroll
slow
fast
+/-
esc
set tempo
stop
Les paso aquí esta tablatura que, si bien la otra transcripción
que hay de esta tema no está tan mal, tiene errores en algunas notas
y está incompleta.
==============================================================

A#     Gm               F
    Pensaba en aquellos años,
            Cm         Gm
    que estábamos tu y yo,
           Cm     A#   F
    muy libres y enamorados.


[PUENTE 1]:

    A#     Cm      Dm           F               A#
e|--------------------------------------------------|
B|--------------------------------------------------|
G|--3-3-3-3/5-5-5-5/7~----7-8-8/10-10-10-10-8-7-3~--|
D|--------------------------------------------------|
A|--------------------------------------------------|
E|--------------------------------------------------|


    A#     Cm      Dm         F
e|----------------------------------|
B|----------------------------------|
G|--3-3-3-3/5-5-5-5/7~--7-5-3-5-2~--|
D|----------------------------------|
A|----------------------------------|
E|----------------------------------|


     Cm               Gm           A#               Gm
e|---------------------------10-11-13--13-13--11-10-18~--|
B|--4/6-8-8-/11-10-6-6/8~--------------------------------|
G|-------------------------------------------------------|
D|-------------------------------------------------------|
A|-------------------------------------------------------|
E|-------------------------------------------------------|

    A#     Cm       Dm            F
e|--6-6-6-6/8-8-8-8/10~----10-8-6-8-5~--|
B|--------------------------------------|
G|--------------------------------------|
D|--------------------------------------|
A|--------------------------------------|
E|--------------------------------------|


A#     Gm               F
    Pensaba en aquellos años,
            Cm         Gm
    que estábamos tu y yo,
           Cm     A#   F
    muy libres y enamorados.

A#     Gm                 F
   No quiero alejarme de ti,
       Cm             Gm
   caminando y de la mano,
         Cm    A#   F
   ahora todo terminó.


    A#      Cm       Dm
   Nena tu erés para mí,
          F               A#
   ven acuéstate en mis brazos.
   A#       Cm    Dm           F
   No lo puedo creer,   te perdí.
         Cm         Gm
   Hoy necesito tu amor,
         A#            Gm
   yo lo veo en tu corazón,
    A#         Cm     Dm           F
   Y es tan difícil creer,  Te perdí.


[PUENTE 1]


A#      Gm                  F
   No quiero esperar mucho tiempo,
            Cm             Gm
   que tu amor venga hacia mí,
           Cm      A#      F
   mi amor no me hagas sufrir.

A#      Gm               F
   Hoy nada me hará cambiar,
          Cm           Gm
   lo que te quiero decir,
           Cm      A#     F
   que mi amor te alumbrará.


    A#      Cm       Dm
   Nena tu erés para mí,
          F               A#
   ven acuéstate en mis brazos.
   A#       Cm    Dm           F
   No lo puedo creer,   te perdí.
         Cm         Gm
   Hoy necesito tu amor,
         A#            Gm
   yo lo veo en tu corazón,
    A#         Cm     Dm           F
   Y es tan difícil creer,  Te perdí.


[PUENTE 2]:

   Cm Cm  Cm Dm D# Dm Cm Gm  F
e|--------------------------------------------------|
B|--------------------------------------------------|
G|--------------------------------------------------|
D|------------------------5--3~---1/3--1~---3/5--3~-|
A|--3--3---3--5--6--5--3----------------------------|
E|--------------------------------------------------|

   Cm Cm  Cm Dm D# Dm Cm Gm Am°    Cm Cm Cm
e|------------------------------|------------|
B|------------------------------|------------|
G|------------------------------|------------|
D|------------------------5--7~-|------------|
A|--3--3---3--5--6--5--3--------|---3--3--3--|
E|------------------------------|------------|


 D#                         A#
   Si en tu vida encuentras alguien,
                     Gm
   que te ame de verdad
                       F
   que siempre te cuidará.


 D#                      A#
   Hoy nada me hará cambiar,
                      Gm
   lo que te quiero decir,
                         F
   que mi amor te alumbrará.


    A#      Cm       Dm
   Nena tu erés para mí,
          F               A#
   ven acuéstate en mis brazos.
   A#       Cm    Dm           F
   No lo puedo creer,   te perdí.
         Cm         Gm
   Hoy necesito tu amor,
         A#            Gm
   yo lo veo en tu corazón,
    A#         Cm     Dm           F
   Y es tan difícil creer,  Te perdí.


[PUENTE 2]


[FINAL]:  F - F - F A# - A#


e|------------------------------------------------|
B|-------------------------------------------11~--|
G|--14-12-11-12-11----11--------------------------|
D|-----------------14----14-12-14-12-11-12--------|
A|------------------------------------------------|
E|------------------------------------------------|


==============================================================
Este tema es para vos, mi amor; no te pude olvidar princesa...

            
            
Suggest correction
Creating personal tab
Creating personal tab
You can edit any tab online and save it as your Personal.

You can edit, replace or remove any tab part or add personal notes – all changes will be seen only by you.

Personal tabs can be accessed anytime from any device, even offline.
Learn more »
Give kudos to tab author, rate the tab!
1 2 3 4 5
comments
print report bad tab
guest
Wanna post a correction for this tab? Suggest correction