Oops, an error
Loading. Please wait.

Marihuana tab

651 views 3 this week
1 commentread comment
1 2 3 4 5
2 more votes to show rating
add to favorites
×
Save as Personal and add changes to this tab that will be seen only by you. Learn more ›
×
You can save this tab as Personal to edit and correct it or add notes. All changes will be seen only by you. Learn more »
launch autoscroll
font size
0
reset
how to read this tab
guitar tuner
edit
Autoscroll
slow
fast
+/-
esc
set tempo
stop
Wenas Gente que aquí nadie ponía los solos de
Marihuana y yo aquí sin tener mucha idea
los he dejado mas o menos parecidos... exepto
el último en el que se suele improvisar y queda
mejor, en el ultimo va con liks, no he puesto
el numero exacto de notas. Bueno la rueda TODO
el mundo la conoze!
SI  SOL  RE   LA, ha partir de esto ir tocando
lo que os he escrito?Dew!   ?FACU?


s   = slide
H   = Hammer
P   = Pull OFF / Pull ON
H P = Hmmaer & Pull OFF
HM  = Harmónico Provocado


0:00          'Comienza Intro'

e |----------------------------------------------|
B |----------------------------------------------|
G |----------------------------------------------|
D |----------------------------------------------|
A |------------7--9------------------5-s-7-------|
E |--7--9--10-----------10--9--10----------------|


e |-------------------------------------7--------|
B |-----------------------------------7---7------|
G |---------------------------------7------br9-9-|
D |-------------------------------7--------------|
A |--3-s-7-----------5--7-s-9--------------------|
E |---------7--5--7------------------------------|


e |--12--10-----------7-7-7--b10-7------7--------|
B |----------b7--5------------------b10----------|
G |----------------------------------------------|
D |----------------------------------------------|
A |----------------------------------------------|
E |----------------------------------------------|

             H P            H P
e |----------------------------------------------|
B |--10--8--7-8-7---10--8--7-8-7-----7---7-------|
G |--------------------------------9---9---------|
D |----------------------------------------------|
A |----------------------------------------------|
E |----------------------------------------------|

                             H P          P
e |----------------------------------------------|
B |--------------8-------------------------------|
G |-b9-b9-b9--11----9--7----7-9-7--b9--br9-7--9--|
D |----------------------9-----------------------|
A |----------------------------------------------|
E |----------------------------------------------|

                 P
e |----------------------------------------------|
B |----------------------------------------------|
G |-------------9-7------------------------------|
D |---12-12-12-------9----------------7----------|
A |-----------------------10-9-10-10-------------|
E |----------------------------------------------|


e |----------------------------------------------|
B |----------------------------------------------|
G |--------------------------------7-------7-----|
D |----------7----------------7-9-----7-9--------|
A |--10-9-10----10-9-7-9-10----------------------|
E |----------------------------------------------|


e |--------10-s-b12--10-s-b12----12-10-----------|
B |------------------------------------12-10-s-8-|
G |----7-9---------------------------------------|
D |--9-------------------------------------------|
A |----------------------------------------------|
E |----------------------------------------------|

                H P
e |----------------------------------------------|
B |----------------------------------------------|
G |--9-7---7---7-9-7--br9------------------------|
D |------9---9-----------------------------------|
A |----------------------------------------------|
E |----------------------------------------------|

0:33           ?FIN DE INTRO?


1:07             ?SOLO 1?

                                    H P
e |--------------7-9-10-9-7----------------------|
B |---------------------------10-8-7-8-7---------|
G |----------------------------------------------|
D |----------------------------------------------|
A |----------------------------------------------|
E |---8-8-5-7s0----------------------------------|


e |----------------------------------------------|
B |----------------------------------------------|
G |-b9-b9-b9-b9---b9---9-7-------------7---------|
D |-----------------------9-7----7--9------------|
A |----------------------------9-----------------|
E |----------------------------------------------|


                            P
e |----------------------------------------------|
B |----------------------------------------------|
G |--9-7-------------7----b9-7-9-----------------|
D |-----9-7----7--9------------------------------|
A |----------9-----------------------------------|
E |----------------------------------------------|

1:18             ?FIN SOLO 1?


1:51               ?SOLO 2?
                           H        P   HM P
e |-----------------------------------------------|
B |-----------------------------------------------|
G |----------------------------7-br9-7--br9-7-----|
D |-7-s-9-9-9-9-9-9--7-9--7-9---------------------|
A |-----------------------------------------------|
E |-----------------------------------------------|

                                      P      P
e |-----------------------------------------------|
B |-------------------7---------------------------|
G |--br9-7---br9--9-----7--6--7--6----------------|
D |--------------------------------9-9-7--9-9-7-9-|
A |-----------------------------------------------|
E |-----------------------------------------------|

                           H        P      P
e |-----------------------------------------------|
B |-----------------------------------------------|
G |----------------------------7-br9-7--br9-7-----|
D |-7-s-9-9-9-9-9-9--7-9--7-9---------------------|
A |-----------------------------------------------|
E |-----------------------------------------------|

      HM
e |---------------3s5-5-5-5--3s5-5-5-5--3s5-5-5-5-|
B |---------------5s7-7-7-7--5s7-7-7-7--5s7-7-7-7-|
G |--br9-7---br9----------------------------------|
D |-----------------------------------------------|
A |-----------------------------------------------|
E |-----------------------------------------------|

                          P
e |--3s5-5-5-5--5-5-5-----------------------------|
B |--5s7-7-7-7--7-7-7-----------------------------|
G |--------------------br9-7-9--------------------|
D |-----------------------------------------------|
A |-----------------------------------------------|
E |-----------------------------------------------|

2:15                                   ?FIN SOLO 2?


3:21                  ?SOLO 3?

e |-----------------------------------------------|
B |-----------------------------------------------|
G |--12121212-13131313-15151515-17171717-19191919-|
D |-----------------------------------------------|
A |-----------------------------------------------|
E |-----------------------------------------------|

e |-----------------------------------------------|
B |-----------------------------------------------|
G |-19191919--22-19-19--19191919--22-19-19--------|
D |-----------------------------------------------|
A |-----------------------------------------------|
E |-----------------------------------------------|

e |-----------------------------------------------|
B |-----------------------------------------------|
G |-19191919191919191919s0--br9-7-9--br9-7-9------|
D |-----------------------------------------------|
A |-----------------------------------------------|
E |-----------------------------------------------|

                 P              P
e |-----------------------------------------------|
B |-----------------------------------------------|
G |-br9-7-9-- br9-7-9---b9-- br9-7-7--------------|
D |-----------------------------------------------|
A |-----------------------------------------------|
E |-----------------------------------------------|

e |-----------------------------------------------|
B |-----------------------------------------------|
G |------------------------------7----7-----------|
D |----------------7----7-9--7-9----9-------------|
A |--7-9-10--7-9-10--10---------------------------|
E |-----------------------------------------------|


e |-----------------------------------------------|
B |-----------------------------------------------|
G |-b9---b9b9-------------------------------------|
D |-----------------------------------------------|
A |-----------------------------------------------|
E |-----------------------------------------------|


                           ?FINAL?


Dedicada para ***Ale***...

            
            
Suggest correction
Creating personal tab
Creating personal tab
You can edit any tab online and save it as your Personal.

You can edit, replace or remove any tab part or add personal notes – all changes will be seen only by you.

Personal tabs can be accessed anytime from any device, even offline.
Learn more »
Give kudos to tab author, rate the tab!
1 2 3 4 5
comments
print report bad tab
1 comment total.
+1 reply
iquiman 72 Apr 27, 2015 01:28 PM

Lack of accuracy. Clearly wrong. i don't know what was thinking this guy buy it doesn't sound like the porretas song, im sorry but its true

guest
Wanna post a correction for this tab? Suggest correction