Oops, an error
Loading. Please wait.

Brigada De Negro bass

663 views 1 this week
no commentswrite comment
1 2 3 4 5
3 more votes to show rating
add to favorites
×
Save as Personal and add changes to this tab that will be seen only by you. Learn more ›
×
You can save this tab as Personal to edit and correct it or add notes. All changes will be seen only by you. Learn more »
launch autoscroll
font size
0
reset
guitar tuner
edit
Autoscroll
slow
fast
+/-
esc
set tempo
stop
Brigada de negro
(Los Prisioneros)
Intro
                                                          Am  C   Dm  
G-|-----------------------------------------------------------------|
D-|-----------------------------------------------------------------|
A-|-----------------------------------------------------0---3---5---|
E-|-----------------------------------------------------------------|


    Am              Bb              Am              Bb  Am  C   Dm
G-|-----------------------------------------------------------------|
D-|---------0-2-0-------0-0-2-3-2-0---------0-2-0-3-----------------|                
E-|-0-0-3-3-------3-1-1-------------0-0-3-3---------1---0---3---5---|
A-|-----------------------------------------------------------------|
                                                    ^   ^   ^   ^
                                                      repetir 2 veces

Estrofa 1 
                   
    Am              Bb              Am              Bb
G-|-----------------------------------------------------------------|
D-|---------0-2-0-------0-0-2-3-2-0---------0-2-0-------0-0-2-3-2-0-|
A-|-0-0-3-3-------3-1-1-------------0-0-3-3-------3-1-1-------------|
E-|-----------------------------------------------------------------|
                                                      repetir 3 veces

    Am              Bb              E                   Am  Bb  Dm 
G-|-----------------------------------------------------------------|
D-|---------0-2-0-------0-0-2-3-2-0-2-2-2-2-2-2-2-2-2---------------|
A-|-0-0-3-3-------3-1-1---------------------------------0---3---5---|
E-|-----------------------------------------------------------------|
                                                    ^   ^   ^   ^

Estrofa 2
     
    Am              Bb              Am              Bb
G-|-----------------------------------------------------------------|
D-|---------0-2-0-------0-0-2-3-2-0---------0-2-0-------0-0-2-3-2-0-|
A-|-0-0-3-3-------3-1-1-------------0-0-3-3-------3-1-1-------------|
E-|-----------------------------------------------------------------|
    %                                                 repetir 3 veces

    Am              Bb              E    
G-|-----------------------------------------------------------------|
D-|---------0-2-0-------0-0-2-3-2-0-2-2-2-2-2-2-2-2-2-2-2-2-2-2-2-2-|
A-|-0-0-3-3-------3-1-1---------------------------------------------|
E-|-----------------------------------------------------------------|


Coro
 
    Am              Bb      C       Am              Bb      C  
G-|-----------------------------------------------------------------|
D-|---2-0-------2-----0-3-0---2-5-----2-0-------2-----0-3-0---2-5---|
A-|-0-----3-0-3---3-1-------3-----2-0-----3-0-3---3-1-------3-----2-|
E-|-----------------------------------------------------------------|

    Am              Bb      C       Am              Bb      
G-|-----------------------------------------------------------------|
D-|---2-0-------2-----0-3-0---2-5-----------------------------------|
A-|-0-----3-0-3---3-1-------3-----2-0-------0---0---1-------1---1---|
E-|-----------------------------------------------------------------|

    C		        Am  C   Dm
G-|---------------------------------|
D-|---------------------------------|
A-|-3-3-3-3-3-3-3-3-3---0---3---5---|
E-|---------------------------------|
                 ** ^   ^   ^   ^

Estrofa 3

Pasas al % (Estrofa 2) y luego el coro sólo hasta **

Puente

    Bb              F               C               G
G-|-----------------------------------------------------------------|
D-|---------------0-3-----3-----3-----------------2-5-----5-----5---|
A-|-1-----1-----1-------------------3-----3-----3-------------------|
E-|-----------------------------------------------------------------|
    ^               ^           ^   ^               ^ 
                                                      repetir 3 veces


    Bb              F               G                   Bm  D   E
G-|-----------------------------------------------------------------|
D-|---------------0-3-----3-----3---5-5-5-5-5-5-5-5-5-------0---2---|
A-|-1-----1-----1---------------------------------------2-----------|
E-|-----------------------------------------------------------------|
                                                    ^   ^   ^   ^

Estrofa 4
(la canción sube un tono)

    Bm              C               Bm              C
G-|-----------------------------------------------------------------|
D-|-----0-0-2-4-2-0-----2-2-4-5-4-2-----0-0-2-4-2-0-----2-2-4-5-4-2-|
A-|-2-2-------------3-3-------------2-2-------------3-3-------------|
E-|-----------------------------------------------------------------|
                                                      repetir 3 veces

    Bm              C               F#              
G-|-----------------------------------------------------------------|
D-|-----0-0-2-4-2-0-----2-2-4-5-4-2-4-4-4-4-4-4-4-4-4-4-4-4-4-4-4-4-|
A-|-2-2-------------3-3---------------------------------------------|
E-|-----------------------------------------------------------------|

Coro

    Bm              C       D       Bm              C       D
G-|-----------------------------2----- -------------------------2---|
D-|---4-2-0---0-4-0---2-5-2-0-4---4---4-2-0---0-4-0---2-5-2-0-4---4-|
A-|-2-------2-------3---------------2-------2-------3---------------|
E-|-----------------------------------------------------------------|
                                                      repetir 2 veces

Final

    Bm              C       D       Bm              C       D
G-|-----------------------------2----- -------------------------2---|
D-|---4-2-0---0-4-0---2-5-2-0-4---4---4-2-0---0-4-0---2-5-2-0-4---4-|
A-|-2-------2-------3---------------2-------2-------3---------------|
E-|-----------------------------------------------------------------|
                                                      repetir 2 veces


    Em      Bm  C   D               Em      Bm  C   D
G-|-----------------------------------------------------------------|
D-|-2-2-2---------------------------2-2-2---------------------------|
A-|---------2---3---5-5-5-5-5-5-5-5---------2---3---5-5-5-5-5-5-5-5-|
E-|-----------------------------------------------------------------|
            ^   ^   ^                       ^   ^   ^ repetir 2 veces

                                        Bm  D   Em  Bm 
G-|-----------------------------------------------------------------|
D-|-----------------------------------------------------------------|
A-|-5-5-5-5-5-5-5-5-5-5-5-5-5-5-5-5-5---2---5---7---2---------------|
E-|-----------------------------------------------------------------|
                                    ^   ^   ^   ^   ^

Transcrita para bajo por Carlos Gutiérrez
crls_@

            
            
Suggest correction
Creating personal tab
Creating personal tab
You can edit any tab online and save it as your Personal.

You can edit, replace or remove any tab part or add personal notes – all changes will be seen only by you.

Personal tabs can be accessed anytime from any device, even offline.
Learn more »
Give kudos to tab author, rate the tab!
1 2 3 4 5
comments
print report bad tab
guest
Wanna post a correction for this tab? Suggest correction